ISO-10303-21;
HEADER;
FILE_DESCRIPTION (( 'STEP AP203' ),
    '1' );
FILE_NAME ('55611.step',
    '2021-10-06T11:19:53',
    ( '' ),
    ( '' ),
    'SwSTEP 2.0',
    'SolidWorks 2019',
    '' );
FILE_SCHEMA (( 'CONFIG_CONTROL_DESIGN' ));
ENDSEC;

DATA;
#1 = VERTEX_POINT ( 'NONE', #65 ) ;
#2 =( NAMED_UNIT ( * ) SI_UNIT ( $, .STERADIAN. ) SOLID_ANGLE_UNIT ( ) );
#3 = CONICAL_SURFACE ( 'NONE', #114, 0.3999999999999999667, 0.7853981633974512766 ) ;
#4 = APPROVAL_PERSON_ORGANIZATION ( #66, #155, #48 ) ;
#5 = EDGE_CURVE ( 'NONE', #137, #137, #46, .T. ) ;
#6 = CARTESIAN_POINT ( 'NONE',  ( 1.319779946082704535E-13, 0.5999999999999953149, 37.79999999999999716 ) ) ;
#7 = DATE_TIME_ROLE ( 'creation_date' ) ;
#8 = LOCAL_TIME ( 13, 19, 53.00000000000000000, #94 ) ;
#9 = PERSON_AND_ORGANIZATION ( #68, #35 ) ;
#10 = DATE_TIME_ROLE ( 'classification_date' ) ;
#11 = PERSON_AND_ORGANIZATION_ROLE ( 'classification_officer' ) ;
#12 = CARTESIAN_POINT ( 'NONE',  ( 5.586370142149013368E-14, 4.499279347985522875E-33, 16.00000000000000000 ) ) ;
#13 = DIRECTION ( 'NONE',  ( -3.491481338843133355E-15, 1.224646799147353207E-16, -1.000000000000000000 ) ) ;
#14 = CIRCLE ( 'NONE', #151, 0.5999999999999972022 ) ;
#15 = EDGE_LOOP ( 'NONE', ( #31 ) ) ;
#16 = CC_DESIGN_APPROVAL ( #167, ( #188 ) ) ;
#17 = CYLINDRICAL_SURFACE ( 'NONE', #41, 0.5999999999999963141 ) ;
#18 = PLANE ( 'NONE',  #90 ) ;
#19 = EDGE_CURVE ( 'NONE', #49, #49, #14, .T. ) ;
#20 = FACE_OUTER_BOUND ( 'NONE', #102, .T. ) ;
#21 = COORDINATED_UNIVERSAL_TIME_OFFSET ( 1, 0, .AHEAD. ) ;
#22 = APPLICATION_PROTOCOL_DEFINITION ( 'international standard', 'config_control_design', 1994, #71 ) ;
#23 = CARTESIAN_POINT ( 'NONE',  ( 5.586370142149013368E-14, 0.5999999999999953149, 16.00000000000000000 ) ) ;
#24 = PERSON_AND_ORGANIZATION_ROLE ( 'creator' ) ;
#25 =( GEOMETRIC_REPRESENTATION_CONTEXT ( 3 ) GLOBAL_UNCERTAINTY_ASSIGNED_CONTEXT ( ( #42 ) ) GLOBAL_UNIT_ASSIGNED_CONTEXT ( ( #96, #139, #2 ) ) REPRESENTATION_CONTEXT ( 'NONE', 'WORKASPACE' ) );
#26 = APPROVAL_STATUS ( 'not_yet_approved' ) ;
#27 = EDGE_LOOP ( 'NONE', ( #47 ) ) ;
#28 = DIRECTION ( 'NONE',  ( 0.0000000000000000000, 1.000000000000000000, 0.0000000000000000000 ) ) ;
#29 = ORIENTED_EDGE ( 'NONE', *, *, #5, .F. ) ;
#30 = DIRECTION ( 'NONE',  ( 4.275831445896958607E-31, 1.000000000000000000, 1.224646799147353207E-16 ) ) ;
#31 = ORIENTED_EDGE ( 'NONE', *, *, #5, .T. ) ;
#32 = CARTESIAN_POINT ( 'NONE',  ( 0.0000000000000000000, 0.0000000000000000000, 0.0000000000000000000 ) ) ;
#33 = CC_DESIGN_PERSON_AND_ORGANIZATION_ASSIGNMENT ( #165, #11, ( #188 ) ) ;
#34 = CARTESIAN_POINT ( 'NONE',  ( 5.586370142149013368E-14, 0.5999999999999953149, 16.00000000000000000 ) ) ;
#35 = ORGANIZATION ( 'UNSPECIFIED', 'UNSPECIFIED', '' ) ;
#36 = CALENDAR_DATE ( 2021, 6, 10 ) ;
#37 = PERSON_AND_ORGANIZATION ( #68, #35 ) ;
#38 = DATE_AND_TIME ( #181, #105 ) ;
#39 = EDGE_LOOP ( 'NONE', ( #130 ) ) ;
#40 = DIRECTION ( 'NONE',  ( 4.275831445896957731E-31, 1.000000000000000000, 1.224646799147353207E-16 ) ) ;
#41 = AXIS2_PLACEMENT_3D ( 'NONE', #73, #63, #40 ) ;
#42 = UNCERTAINTY_MEASURE_WITH_UNIT (LENGTH_MEASURE( 1.000000000000000082E-05 ), #96, 'distance_accuracy_value', 'NONE');
#43 = DIRECTION ( 'NONE',  ( -3.491481338843133355E-15, 1.224646799147353207E-16, -1.000000000000000000 ) ) ;
#44 = DIRECTION ( 'NONE',  ( 3.491481338843133355E-15, -1.224646799147353207E-16, 1.000000000000000000 ) ) ;
#45 = DIRECTION ( 'NONE',  ( -4.275831445896958607E-31, -1.000000000000000000, -1.224646799147353207E-16 ) ) ;
#46 = CIRCLE ( 'NONE', #98, 0.3999999999999999667 ) ;
#47 = ORIENTED_EDGE ( 'NONE', *, *, #190, .T. ) ;
#48 = APPROVAL_ROLE ( '' ) ;
#49 = VERTEX_POINT ( 'NONE', #23 ) ;
#50 = CIRCLE ( 'NONE', #69, 0.5999999999999972022 ) ;
#51 = CARTESIAN_POINT ( 'NONE',  ( 0.0000000000000000000, 0.0000000000000000000, 0.0000000000000000000 ) ) ;
#52 = ADVANCED_FACE ( 'NONE', ( #184, #61 ), #3, .T. ) ;
#53 = APPROVAL_ROLE ( '' ) ;
#54 = CC_DESIGN_DATE_AND_TIME_ASSIGNMENT ( #38, #10, ( #188 ) ) ;
#55 = SECURITY_CLASSIFICATION_LEVEL ( 'unclassified' ) ;
#56 = APPROVAL_PERSON_ORGANIZATION ( #191, #167, #53 ) ;
#57 = DESIGN_CONTEXT ( 'detailed design', #71, 'design' ) ;
#58 = FACE_OUTER_BOUND ( 'NONE', #199, .T. ) ;
#59 = ORIENTED_EDGE ( 'NONE', *, *, #19, .T. ) ;
#60 = DIRECTION ( 'NONE',  ( -3.491481338843133355E-15, 1.224646799147353207E-16, -1.000000000000000000 ) ) ;
#61 = FACE_BOUND ( 'NONE', #15, .T. ) ;
#62 = CC_DESIGN_APPROVAL ( #155, ( #118 ) ) ;
#63 = DIRECTION ( 'NONE',  ( -3.491481338843133355E-15, 1.224646799147353207E-16, -1.000000000000000000 ) ) ;
#64 = CC_DESIGN_DATE_AND_TIME_ASSIGNMENT ( #157, #7, ( #198 ) ) ;
#65 = CARTESIAN_POINT ( 'NONE',  ( 9.768626919646978927E-16, 0.5999999999999953149, 0.2797845948930007265 ) ) ;
#66 = PERSON_AND_ORGANIZATION ( #68, #35 ) ;
#67 = APPROVAL ( #142, 'UNSPECIFIED' ) ;
#68 = PERSON ( 'UNSPECIFIED', 'UNSPECIFIED', 'UNSPECIFIED', ('UNSPECIFIED'), ('UNSPECIFIED'), ('UNSPECIFIED') ) ;
#69 = AXIS2_PLACEMENT_3D ( 'NONE', #169, #150, #187 ) ;
#70 = COORDINATED_UNIVERSAL_TIME_OFFSET ( 1, 0, .AHEAD. ) ;
#71 = APPLICATION_CONTEXT ( 'configuration controlled 3d designs of mechanical parts and assemblies' ) ;
#72 = CARTESIAN_POINT ( 'NONE',  ( 9.768626919646976955E-16, -3.426373085864521849E-17, 0.2797845948930006710 ) ) ;
#73 = CARTESIAN_POINT ( 'NONE',  ( 0.0000000000000000000, 0.0000000000000000000, 0.0000000000000000000 ) ) ;
#74 = CC_DESIGN_PERSON_AND_ORGANIZATION_ASSIGNMENT ( #79, #24, ( #198 ) ) ;
#75 = DIRECTION ( 'NONE',  ( -3.209883240645418195E-31, -1.000000000000000000, -9.035018104045940952E-17 ) ) ;
#76 = DIRECTION ( 'NONE',  ( -3.491481338843133355E-15, 1.224646799147353207E-16, -1.000000000000000000 ) ) ;
#77 = AXIS2_PLACEMENT_3D ( 'NONE', #72, #43, #107 ) ;
#78 = AXIS2_PLACEMENT_3D ( 'NONE', #110, #149, #75 ) ;
#79 = PERSON_AND_ORGANIZATION ( #68, #35 ) ;
#80 = AXIS2_PLACEMENT_3D ( 'NONE', #152, #13, #93 ) ;
#81 = CALENDAR_DATE ( 2021, 6, 10 ) ;
#82 = DATE_AND_TIME ( #36, #95 ) ;
#83 = PERSON_AND_ORGANIZATION_ROLE ( 'design_supplier' ) ;
#84 = AXIS2_PLACEMENT_3D ( 'NONE', #32, #123, #119 ) ;
#85 = DATE_AND_TIME ( #203, #108 ) ;
#86 = ADVANCED_FACE ( 'NONE', ( #121 ), #18, .F. ) ;
#87 = CARTESIAN_POINT ( 'NONE',  ( 5.586370142149013368E-14, 4.499279347985522875E-33, 16.00000000000000000 ) ) ;
#88 = CARTESIAN_POINT ( 'NONE',  ( 1.326762908760390423E-13, 2.999519565323645082E-33, 38.00000000000000000 ) ) ;
#89 = DIRECTION ( 'NONE',  ( -4.275831445896958607E-31, -1.000000000000000000, -1.224646799147353207E-16 ) ) ;
#90 = AXIS2_PLACEMENT_3D ( 'NONE', #88, #60, #30 ) ;
#91 = EDGE_LOOP ( 'NONE', ( #153 ) ) ;
#92 = ORIENTED_EDGE ( 'NONE', *, *, #179, .F. ) ;
#93 = DIRECTION ( 'NONE',  ( 0.0000000000000000000, 1.000000000000000000, 0.0000000000000000000 ) ) ;
#94 = COORDINATED_UNIVERSAL_TIME_OFFSET ( 1, 0, .AHEAD. ) ;
#95 = LOCAL_TIME ( 13, 19, 53.00000000000000000, #21 ) ;
#96 =( LENGTH_UNIT ( ) NAMED_UNIT ( * ) SI_UNIT ( .MILLI., .METRE. ) );
#97 = PERSON_AND_ORGANIZATION ( #68, #35 ) ;
#98 = AXIS2_PLACEMENT_3D ( 'NONE', #131, #183, #185 ) ;
#99 = LOCAL_TIME ( 13, 19, 53.00000000000000000, #70 ) ;
#100 = PRODUCT_DEFINITION_SHAPE ( 'NONE', 'NONE',  #198 ) ;
#101 = PERSON_AND_ORGANIZATION_ROLE ( 'creator' ) ;
#102 = EDGE_LOOP ( 'NONE', ( #92 ) ) ;
#103 = ADVANCED_FACE ( 'NONE', ( #106 ), #129, .T. ) ;
#104 = EDGE_LOOP ( 'NONE', ( #59 ) ) ;
#105 = LOCAL_TIME ( 13, 19, 53.00000000000000000, #180 ) ;
#106 = FACE_OUTER_BOUND ( 'NONE', #39, .T. ) ;
#107 = DIRECTION ( 'NONE',  ( 3.209883240645418195E-31, 1.000000000000000000, 9.035018104045940952E-17 ) ) ;
#108 = LOCAL_TIME ( 13, 19, 53.00000000000000000, #136 ) ;
#109 = ORIENTED_EDGE ( 'NONE', *, *, #138, .F. ) ;
#110 = CARTESIAN_POINT ( 'NONE',  ( 9.768626919646976955E-16, -3.426373085864521849E-17, 0.2797845948930006710 ) ) ;
#111 = CC_DESIGN_PERSON_AND_ORGANIZATION_ASSIGNMENT ( #37, #112, ( #143 ) ) ;
#112 = PERSON_AND_ORGANIZATION_ROLE ( 'design_owner' ) ;
#113 = CLOSED_SHELL ( 'NONE', ( #103, #141, #133 ) ) ;
#114 = AXIS2_PLACEMENT_3D ( 'NONE', #124, #76, #28 ) ;
#115 = SHAPE_DEFINITION_REPRESENTATION ( #100, #148 ) ;
#116 = CIRCLE ( 'NONE', #80, 0.5999999999999999778 ) ;
#117 = PRODUCT_RELATED_PRODUCT_CATEGORY ( 'detail', '', ( #143 ) ) ;
#118 = PRODUCT_DEFINITION_FORMATION_WITH_SPECIFIED_SOURCE ( 'ANY', '', #143, .NOT_KNOWN. ) ;
#119 = DIRECTION ( 'NONE',  ( 4.275831445896959482E-31, 1.000000000000000000, 1.224646799147353207E-16 ) ) ;
#120 = DIRECTION ( 'NONE',  ( 0.0000000000000000000, 1.000000000000000000, 0.0000000000000000000 ) ) ;
#121 = FACE_OUTER_BOUND ( 'NONE', #174, .T. ) ;
#122 = ADVANCED_FACE ( 'NONE', ( #168 ), #134, .F. ) ;
#123 = DIRECTION ( 'NONE',  ( -3.491481338843133355E-15, 1.224646799147353207E-16, -1.000000000000000000 ) ) ;
#124 = CARTESIAN_POINT ( 'NONE',  ( 1.326762908760390423E-13, -4.653657836759941941E-15, 38.00000000000000000 ) ) ;
#125 = APPLICATION_PROTOCOL_DEFINITION ( 'international standard', 'config_control_design', 1994, #145 ) ;
#126 = ADVANCED_FACE ( 'NONE', ( #132, #58 ), #200, .T. ) ;
#127 = VERTEX_POINT ( 'NONE', #6 ) ;
#128 = DATE_AND_TIME ( #163, #99 ) ;
#129 = CONICAL_SURFACE ( 'NONE', #78, 0.5999999999999953149, 1.134464013796309123 ) ;
#130 = ORIENTED_EDGE ( 'NONE', *, *, #179, .T. ) ;
#131 = CARTESIAN_POINT ( 'NONE',  ( 1.326762908760390423E-13, -4.653657836759941941E-15, 38.00000000000000000 ) ) ;
#132 = FACE_OUTER_BOUND ( 'NONE', #91, .T. ) ;
#133 = ADVANCED_FACE ( 'NONE', ( #156 ), #182, .T. ) ;
#134 = PLANE ( 'NONE',  #177 ) ;
#135 = CC_DESIGN_SECURITY_CLASSIFICATION ( #188, ( #118 ) ) ;
#136 = COORDINATED_UNIVERSAL_TIME_OFFSET ( 1, 0, .AHEAD. ) ;
#137 = VERTEX_POINT ( 'NONE', #178 ) ;
#138 = EDGE_CURVE ( 'NONE', #127, #127, #116, .T. ) ;
#139 =( NAMED_UNIT ( * ) PLANE_ANGLE_UNIT ( ) SI_UNIT ( $, .RADIAN. ) );
#140 = CIRCLE ( 'NONE', #77, 0.5999999999999953149 ) ;
#141 = ADVANCED_FACE ( 'NONE', ( #20, #201 ), #17, .T. ) ;
#142 = APPROVAL_STATUS ( 'not_yet_approved' ) ;
#143 = PRODUCT ( '55611', '55611', '', ( #175 ) ) ;
#144 = CC_DESIGN_APPROVAL ( #67, ( #198 ) ) ;
#145 = APPLICATION_CONTEXT ( 'configuration controlled 3d designs of mechanical parts and assemblies' ) ;
#146 = PERSON_AND_ORGANIZATION ( #68, #35 ) ;
#147 = CLOSED_SHELL ( 'NONE', ( #122, #126, #52, #86 ) ) ;
#148 = ADVANCED_BREP_SHAPE_REPRESENTATION ( '55611', ( #170, #172, #193 ), #25 ) ;
#149 = DIRECTION ( 'NONE',  ( 3.491481338843133355E-15, -1.224646799147353207E-16, 1.000000000000000000 ) ) ;
#150 = DIRECTION ( 'NONE',  ( -3.491481338843133355E-15, 1.224646799147353207E-16, -1.000000000000000000 ) ) ;
#151 = AXIS2_PLACEMENT_3D ( 'NONE', #194, #196, #120 ) ;
#152 = CARTESIAN_POINT ( 'NONE',  ( 1.319779946082704535E-13, -4.629164900776995227E-15, 37.79999999999999716 ) ) ;
#153 = ORIENTED_EDGE ( 'NONE', *, *, #190, .F. ) ;
#154 = EDGE_LOOP ( 'NONE', ( #197 ) ) ;
#155 = APPROVAL ( #186, 'UNSPECIFIED' ) ;
#156 = FACE_OUTER_BOUND ( 'NONE', #154, .T. ) ;
#157 = DATE_AND_TIME ( #81, #8 ) ;
#158 = DIRECTION ( 'NONE',  ( 1.000000000000000000, 0.0000000000000000000, 0.0000000000000000000 ) ) ;
#159 = APPROVAL_DATE_TIME ( #82, #67 ) ;
#160 = APPROVAL_ROLE ( '' ) ;
#161 = APPROVAL_DATE_TIME ( #85, #155 ) ;
#162 = APPROVAL_PERSON_ORGANIZATION ( #97, #67, #160 ) ;
#163 = CALENDAR_DATE ( 2021, 6, 10 ) ;
#164 = CC_DESIGN_PERSON_AND_ORGANIZATION_ASSIGNMENT ( #146, #101, ( #118 ) ) ;
#165 = PERSON_AND_ORGANIZATION ( #68, #35 ) ;
#166 = ORIENTED_EDGE ( 'NONE', *, *, #138, .T. ) ;
#167 = APPROVAL ( #26, 'UNSPECIFIED' ) ;
#168 = FACE_OUTER_BOUND ( 'NONE', #27, .T. ) ;
#169 = CARTESIAN_POINT ( 'NONE',  ( 5.586370142149013368E-14, -1.959434878635765131E-15, 16.00000000000000000 ) ) ;
#170 = MANIFOLD_SOLID_BREP ( 'Corps-Déplacer/Copier1[1]', #147 ) ;
#171 = DIRECTION ( 'NONE',  ( 3.491481338843133355E-15, -1.224646799147353207E-16, 1.000000000000000000 ) ) ;
#172 = MANIFOLD_SOLID_BREP ( 'Corps-Déplacer/Copier1[2]', #113 ) ;
#173 = EDGE_LOOP ( 'NONE', ( #109 ) ) ;
#174 = EDGE_LOOP ( 'NONE', ( #29 ) ) ;
#175 = MECHANICAL_CONTEXT ( 'NONE', #145, 'mechanical' ) ;
#176 = VERTEX_POINT ( 'NONE', #34 ) ;
#177 = AXIS2_PLACEMENT_3D ( 'NONE', #87, #44, #45 ) ;
#178 = CARTESIAN_POINT ( 'NONE',  ( 1.326762908760390423E-13, 0.3999999999999953038, 38.00000000000000000 ) ) ;
#179 = EDGE_CURVE ( 'NONE', #1, #1, #140, .T. ) ;
#180 = COORDINATED_UNIVERSAL_TIME_OFFSET ( 1, 0, .AHEAD. ) ;
#181 = CALENDAR_DATE ( 2021, 6, 10 ) ;
#182 = PLANE ( 'NONE',  #195 ) ;
#183 = DIRECTION ( 'NONE',  ( -3.491481338843133355E-15, 1.224646799147353207E-16, -1.000000000000000000 ) ) ;
#184 = FACE_OUTER_BOUND ( 'NONE', #173, .T. ) ;
#185 = DIRECTION ( 'NONE',  ( 0.0000000000000000000, 1.000000000000000000, 0.0000000000000000000 ) ) ;
#186 = APPROVAL_STATUS ( 'not_yet_approved' ) ;
#187 = DIRECTION ( 'NONE',  ( 0.0000000000000000000, 1.000000000000000000, 0.0000000000000000000 ) ) ;
#188 = SECURITY_CLASSIFICATION ( '', '', #55 ) ;
#189 = DIRECTION ( 'NONE',  ( 0.0000000000000000000, 0.0000000000000000000, 1.000000000000000000 ) ) ;
#190 = EDGE_CURVE ( 'NONE', #176, #176, #50, .T. ) ;
#191 = PERSON_AND_ORGANIZATION ( #68, #35 ) ;
#192 = APPROVAL_DATE_TIME ( #128, #167 ) ;
#193 = AXIS2_PLACEMENT_3D ( 'NONE', #51, #189, #158 ) ;
#194 = CARTESIAN_POINT ( 'NONE',  ( 5.586370142149013368E-14, -1.959434878635765131E-15, 16.00000000000000000 ) ) ;
#195 = AXIS2_PLACEMENT_3D ( 'NONE', #12, #171, #89 ) ;
#196 = DIRECTION ( 'NONE',  ( -3.491481338843133355E-15, 1.224646799147353207E-16, -1.000000000000000000 ) ) ;
#197 = ORIENTED_EDGE ( 'NONE', *, *, #19, .F. ) ;
#198 = PRODUCT_DEFINITION ( 'UNKNOWN', '', #118, #57 ) ;
#199 = EDGE_LOOP ( 'NONE', ( #166 ) ) ;
#200 = CYLINDRICAL_SURFACE ( 'NONE', #84, 0.5999999999999985345 ) ;
#201 = FACE_OUTER_BOUND ( 'NONE', #104, .T. ) ;
#202 = CC_DESIGN_PERSON_AND_ORGANIZATION_ASSIGNMENT ( #9, #83, ( #118 ) ) ;
#203 = CALENDAR_DATE ( 2021, 6, 10 ) ;
ENDSEC;
END-ISO-10303-21;
