ISO-10303-21;
HEADER;
FILE_DESCRIPTION (( 'STEP AP203' ),
    '1' );
FILE_NAME ('55609.step',
    '2021-10-06T11:19:52',
    ( '' ),
    ( '' ),
    'SwSTEP 2.0',
    'SolidWorks 2019',
    '' );
FILE_SCHEMA (( 'CONFIG_CONTROL_DESIGN' ));
ENDSEC;

DATA;
#1 = CONICAL_SURFACE ( 'NONE', #8, 0.3750000000000000000, 0.7853981633974512766 ) ;
#2 = PERSON ( 'UNSPECIFIED', 'UNSPECIFIED', 'UNSPECIFIED', ('UNSPECIFIED'), ('UNSPECIFIED'), ('UNSPECIFIED') ) ;
#3 = ADVANCED_FACE ( 'NONE', ( #7 ), #68, .T. ) ;
#4 = DATE_TIME_ROLE ( 'classification_date' ) ;
#5 = ORIENTED_EDGE ( 'NONE', *, *, #109, .F. ) ;
#6 = PRODUCT_DEFINITION_SHAPE ( 'NONE', 'NONE',  #191 ) ;
#7 = FACE_OUTER_BOUND ( 'NONE', #190, .T. ) ;
#8 = AXIS2_PLACEMENT_3D ( 'NONE', #138, #64, #159 ) ;
#9 = CALENDAR_DATE ( 2021, 6, 10 ) ;
#10 = APPROVAL_DATE_TIME ( #43, #148 ) ;
#11 = ADVANCED_FACE ( 'NONE', ( #47 ), #201, .F. ) ;
#12 = DATE_AND_TIME ( #9, #74 ) ;
#13 = AXIS2_PLACEMENT_3D ( 'NONE', #169, #16, #92 ) ;
#14 = VERTEX_POINT ( 'NONE', #89 ) ;
#15 = CARTESIAN_POINT ( 'NONE',  ( 0.0000000000000000000, 0.0000000000000000000, 0.0000000000000000000 ) ) ;
#16 = DIRECTION ( 'NONE',  ( -3.491481338843133355E-15, 1.224646799147353207E-16, -1.000000000000000000 ) ) ;
#17 = LOCAL_TIME ( 13, 19, 52.00000000000000000, #27 ) ;
#18 = CARTESIAN_POINT ( 'NONE',  ( 1.319779946082704535E-13, -4.629164900776995227E-15, 37.79999999999999716 ) ) ;
#19 = CC_DESIGN_PERSON_AND_ORGANIZATION_ASSIGNMENT ( #131, #194, ( #191 ) ) ;
#20 = DIRECTION ( 'NONE',  ( 4.275831445896958607E-31, 1.000000000000000000, 1.224646799147353207E-16 ) ) ;
#21 = CLOSED_SHELL ( 'NONE', ( #189, #133, #151, #11 ) ) ;
#22 = AXIS2_PLACEMENT_3D ( 'NONE', #180, #170, #79 ) ;
#23 = APPLICATION_PROTOCOL_DEFINITION ( 'international standard', 'config_control_design', 1994, #178 ) ;
#24 = ORIENTED_EDGE ( 'NONE', *, *, #109, .T. ) ;
#25 = DATE_AND_TIME ( #56, #119 ) ;
#26 = EDGE_LOOP ( 'NONE', ( #112 ) ) ;
#27 = COORDINATED_UNIVERSAL_TIME_OFFSET ( 1, 0, .AHEAD. ) ;
#28 = EDGE_LOOP ( 'NONE', ( #143 ) ) ;
#29 = DATE_AND_TIME ( #81, #17 ) ;
#30 = EDGE_CURVE ( 'NONE', #88, #88, #53, .T. ) ;
#31 = CC_DESIGN_APPROVAL ( #124, ( #191 ) ) ;
#32 = CARTESIAN_POINT ( 'NONE',  ( 1.319779946082704535E-13, 0.5749999999999952927, 37.79999999999999716 ) ) ;
#33 = DIRECTION ( 'NONE',  ( 0.0000000000000000000, 1.000000000000000000, 0.0000000000000000000 ) ) ;
#34 = CARTESIAN_POINT ( 'NONE',  ( 5.586370142149013368E-14, 4.311809375152791358E-33, 16.00000000000000000 ) ) ;
#35 = AXIS2_PLACEMENT_3D ( 'NONE', #129, #85, #147 ) ;
#36 = DIRECTION ( 'NONE',  ( -3.491481338843133355E-15, 1.224646799147353207E-16, -1.000000000000000000 ) ) ;
#37 = APPROVAL_PERSON_ORGANIZATION ( #146, #181, #130 ) ;
#38 = MANIFOLD_SOLID_BREP ( 'Corps-Déplacer/Copier1[1]', #21 ) ;
#39 = APPROVAL_STATUS ( 'not_yet_approved' ) ;
#40 = ORIENTED_EDGE ( 'NONE', *, *, #198, .T. ) ;
#41 = MANIFOLD_SOLID_BREP ( 'Corps-Déplacer/Copier1[2]', #44 ) ;
#42 = COORDINATED_UNIVERSAL_TIME_OFFSET ( 1, 0, .AHEAD. ) ;
#43 = DATE_AND_TIME ( #149, #103 ) ;
#44 = CLOSED_SHELL ( 'NONE', ( #82, #90, #3 ) ) ;
#45 = APPROVAL_DATE_TIME ( #177, #181 ) ;
#46 = APPLICATION_PROTOCOL_DEFINITION ( 'international standard', 'config_control_design', 1994, #152 ) ;
#47 = FACE_OUTER_BOUND ( 'NONE', #55, .T. ) ;
#48 = CC_DESIGN_APPROVAL ( #148, ( #192 ) ) ;
#49 = DIRECTION ( 'NONE',  ( 3.491481338843133355E-15, -1.224646799147353207E-16, 1.000000000000000000 ) ) ;
#50 = CARTESIAN_POINT ( 'NONE',  ( 5.586370142149013368E-14, 0.5749999999999952927, 16.00000000000000000 ) ) ;
#51 = CARTESIAN_POINT ( 'NONE',  ( 0.0000000000000000000, 0.0000000000000000000, 0.0000000000000000000 ) ) ;
#52 = VERTEX_POINT ( 'NONE', #107 ) ;
#53 = CIRCLE ( 'NONE', #203, 0.5749999999999999556 ) ;
#54 = PERSON_AND_ORGANIZATION ( #2, #162 ) ;
#55 = EDGE_LOOP ( 'NONE', ( #5 ) ) ;
#56 = CALENDAR_DATE ( 2021, 6, 10 ) ;
#57 =( NAMED_UNIT ( * ) PLANE_ANGLE_UNIT ( ) SI_UNIT ( $, .RADIAN. ) );
#58 = APPROVAL_STATUS ( 'not_yet_approved' ) ;
#59 = PERSON_AND_ORGANIZATION ( #2, #162 ) ;
#60 = PRODUCT_RELATED_PRODUCT_CATEGORY ( 'detail', '', ( #188 ) ) ;
#61 = FACE_OUTER_BOUND ( 'NONE', #87, .T. ) ;
#62 = CC_DESIGN_APPROVAL ( #181, ( #161 ) ) ;
#63 = DIRECTION ( 'NONE',  ( 3.491481338843133355E-15, -1.224646799147353207E-16, 1.000000000000000000 ) ) ;
#64 = DIRECTION ( 'NONE',  ( -3.491481338843133355E-15, 1.224646799147353207E-16, -1.000000000000000000 ) ) ;
#65 = AXIS2_PLACEMENT_3D ( 'NONE', #179, #49, #76 ) ;
#66 = PERSON_AND_ORGANIZATION_ROLE ( 'design_supplier' ) ;
#67 = ORIENTED_EDGE ( 'NONE', *, *, #158, .F. ) ;
#68 = PLANE ( 'NONE',  #35 ) ;
#69 = EDGE_CURVE ( 'NONE', #52, #52, #108, .T. ) ;
#70 = COORDINATED_UNIVERSAL_TIME_OFFSET ( 1, 0, .AHEAD. ) ;
#71 = PERSON_AND_ORGANIZATION_ROLE ( 'classification_officer' ) ;
#72 = EDGE_LOOP ( 'NONE', ( #164 ) ) ;
#73 = MECHANICAL_CONTEXT ( 'NONE', #152, 'mechanical' ) ;
#74 = LOCAL_TIME ( 13, 19, 52.00000000000000000, #70 ) ;
#75 = FACE_BOUND ( 'NONE', #173, .T. ) ;
#76 = DIRECTION ( 'NONE',  ( -3.349443381543046120E-31, -1.000000000000000000, -9.427844978134897854E-17 ) ) ;
#77 = CC_DESIGN_PERSON_AND_ORGANIZATION_ASSIGNMENT ( #174, #132, ( #188 ) ) ;
#78 = FACE_OUTER_BOUND ( 'NONE', #72, .T. ) ;
#79 = DIRECTION ( 'NONE',  ( 3.349443381543046120E-31, 1.000000000000000000, 9.427844978134897854E-17 ) ) ;
#80 = CIRCLE ( 'NONE', #93, 0.3750000000000000000 ) ;
#81 = CALENDAR_DATE ( 2021, 6, 10 ) ;
#82 = ADVANCED_FACE ( 'NONE', ( #61 ), #176, .T. ) ;
#83 = CARTESIAN_POINT ( 'NONE',  ( 0.0000000000000000000, 0.0000000000000000000, 0.0000000000000000000 ) ) ;
#84 = EDGE_LOOP ( 'NONE', ( #40 ) ) ;
#85 = DIRECTION ( 'NONE',  ( 3.491481338843133355E-15, -1.224646799147353207E-16, 1.000000000000000000 ) ) ;
#86 = COORDINATED_UNIVERSAL_TIME_OFFSET ( 1, 0, .AHEAD. ) ;
#87 = EDGE_LOOP ( 'NONE', ( #97 ) ) ;
#88 = VERTEX_POINT ( 'NONE', #32 ) ;
#89 = CARTESIAN_POINT ( 'NONE',  ( 1.326762908760390423E-13, 0.3749999999999953371, 38.00000000000000000 ) ) ;
#90 = ADVANCED_FACE ( 'NONE', ( #200, #139 ), #104, .T. ) ;
#91 = FACE_OUTER_BOUND ( 'NONE', #100, .T. ) ;
#92 = DIRECTION ( 'NONE',  ( 0.0000000000000000000, 1.000000000000000000, 0.0000000000000000000 ) ) ;
#93 = AXIS2_PLACEMENT_3D ( 'NONE', #171, #197, #102 ) ;
#94 = DIRECTION ( 'NONE',  ( 4.275831445896958607E-31, 1.000000000000000000, 1.224646799147353207E-16 ) ) ;
#95 = CC_DESIGN_DATE_AND_TIME_ASSIGNMENT ( #29, #172, ( #191 ) ) ;
#96 = PERSON_AND_ORGANIZATION ( #2, #162 ) ;
#97 = ORIENTED_EDGE ( 'NONE', *, *, #158, .T. ) ;
#98 = PERSON_AND_ORGANIZATION ( #2, #162 ) ;
#99 =( NAMED_UNIT ( * ) SI_UNIT ( $, .STERADIAN. ) SOLID_ANGLE_UNIT ( ) );
#100 = EDGE_LOOP ( 'NONE', ( #111 ) ) ;
#101 =( GEOMETRIC_REPRESENTATION_CONTEXT ( 3 ) GLOBAL_UNCERTAINTY_ASSIGNED_CONTEXT ( ( #185 ) ) GLOBAL_UNIT_ASSIGNED_CONTEXT ( ( #156, #57, #99 ) ) REPRESENTATION_CONTEXT ( 'NONE', 'WORKASPACE' ) );
#102 = DIRECTION ( 'NONE',  ( 0.0000000000000000000, 1.000000000000000000, 0.0000000000000000000 ) ) ;
#103 = LOCAL_TIME ( 13, 19, 52.00000000000000000, #86 ) ;
#104 = CYLINDRICAL_SURFACE ( 'NONE', #127, 0.5749999999999962919 ) ;
#105 = FACE_OUTER_BOUND ( 'NONE', #84, .T. ) ;
#106 = CIRCLE ( 'NONE', #13, 0.5749999999999972911 ) ;
#107 = CARTESIAN_POINT ( 'NONE',  ( 5.586370142149013368E-14, 0.5749999999999952927, 16.00000000000000000 ) ) ;
#108 = CIRCLE ( 'NONE', #157, 0.5749999999999972911 ) ;
#109 = EDGE_CURVE ( 'NONE', #14, #14, #80, .T. ) ;
#110 = ADVANCED_BREP_SHAPE_REPRESENTATION ( '55609', ( #38, #41, #125 ), #101 ) ;
#111 = ORIENTED_EDGE ( 'NONE', *, *, #30, .F. ) ;
#112 = ORIENTED_EDGE ( 'NONE', *, *, #69, .T. ) ;
#113 = APPROVAL_ROLE ( '' ) ;
#114 = CALENDAR_DATE ( 2021, 6, 10 ) ;
#115 = CIRCLE ( 'NONE', #22, 0.5749999999999952927 ) ;
#116 = PLANE ( 'NONE',  #140 ) ;
#117 = CC_DESIGN_PERSON_AND_ORGANIZATION_ASSIGNMENT ( #96, #71, ( #161 ) ) ;
#118 = DIRECTION ( 'NONE',  ( -3.491481338843133355E-15, 1.224646799147353207E-16, -1.000000000000000000 ) ) ;
#119 = LOCAL_TIME ( 13, 19, 52.00000000000000000, #42 ) ;
#120 = DIRECTION ( 'NONE',  ( 4.275831445896958607E-31, 1.000000000000000000, 1.224646799147353207E-16 ) ) ;
#121 = CARTESIAN_POINT ( 'NONE',  ( 1.326762908760390423E-13, 2.812049592490913223E-33, 38.00000000000000000 ) ) ;
#122 = DIRECTION ( 'NONE',  ( -4.275831445896958607E-31, -1.000000000000000000, -1.224646799147353207E-16 ) ) ;
#123 = AXIS2_PLACEMENT_3D ( 'NONE', #121, #36, #94 ) ;
#124 = APPROVAL ( #128, 'UNSPECIFIED' ) ;
#125 = AXIS2_PLACEMENT_3D ( 'NONE', #83, #126, #144 ) ;
#126 = DIRECTION ( 'NONE',  ( 0.0000000000000000000, 0.0000000000000000000, 1.000000000000000000 ) ) ;
#127 = AXIS2_PLACEMENT_3D ( 'NONE', #51, #196, #120 ) ;
#128 = APPROVAL_STATUS ( 'not_yet_approved' ) ;
#129 = CARTESIAN_POINT ( 'NONE',  ( 5.586370142149013368E-14, 4.311809375152791358E-33, 16.00000000000000000 ) ) ;
#130 = APPROVAL_ROLE ( '' ) ;
#131 = PERSON_AND_ORGANIZATION ( #2, #162 ) ;
#132 = PERSON_AND_ORGANIZATION_ROLE ( 'design_owner' ) ;
#133 = ADVANCED_FACE ( 'NONE', ( #78, #202 ), #153, .T. ) ;
#134 = VERTEX_POINT ( 'NONE', #182 ) ;
#135 = VERTEX_POINT ( 'NONE', #50 ) ;
#136 = DIRECTION ( 'NONE',  ( -3.491481338843133355E-15, 1.224646799147353207E-16, -1.000000000000000000 ) ) ;
#137 = DESIGN_CONTEXT ( 'detailed design', #178, 'design' ) ;
#138 = CARTESIAN_POINT ( 'NONE',  ( 1.326762908760390423E-13, -4.653657836759941941E-15, 38.00000000000000000 ) ) ;
#139 = FACE_OUTER_BOUND ( 'NONE', #26, .T. ) ;
#140 = AXIS2_PLACEMENT_3D ( 'NONE', #34, #63, #122 ) ;
#141 = CC_DESIGN_PERSON_AND_ORGANIZATION_ASSIGNMENT ( #54, #66, ( #192 ) ) ;
#142 = PERSON_AND_ORGANIZATION ( #2, #162 ) ;
#143 = ORIENTED_EDGE ( 'NONE', *, *, #30, .T. ) ;
#144 = DIRECTION ( 'NONE',  ( 1.000000000000000000, 0.0000000000000000000, 0.0000000000000000000 ) ) ;
#145 = LOCAL_TIME ( 13, 19, 52.00000000000000000, #195 ) ;
#146 = PERSON_AND_ORGANIZATION ( #2, #162 ) ;
#147 = DIRECTION ( 'NONE',  ( -4.275831445896958607E-31, -1.000000000000000000, -1.224646799147353207E-16 ) ) ;
#148 = APPROVAL ( #39, 'UNSPECIFIED' ) ;
#149 = CALENDAR_DATE ( 2021, 6, 10 ) ;
#150 = EDGE_LOOP ( 'NONE', ( #67 ) ) ;
#151 = ADVANCED_FACE ( 'NONE', ( #91, #75 ), #1, .T. ) ;
#152 = APPLICATION_CONTEXT ( 'configuration controlled 3d designs of mechanical parts and assemblies' ) ;
#153 = CYLINDRICAL_SURFACE ( 'NONE', #165, 0.5749999999999987343 ) ;
#154 = APPROVAL_PERSON_ORGANIZATION ( #98, #124, #113 ) ;
#155 = CARTESIAN_POINT ( 'NONE',  ( 5.586370142149013368E-14, -1.959434878635765131E-15, 16.00000000000000000 ) ) ;
#156 =( LENGTH_UNIT ( ) NAMED_UNIT ( * ) SI_UNIT ( .MILLI., .METRE. ) );
#157 = AXIS2_PLACEMENT_3D ( 'NONE', #155, #183, #33 ) ;
#158 = EDGE_CURVE ( 'NONE', #134, #134, #115, .T. ) ;
#159 = DIRECTION ( 'NONE',  ( 0.0000000000000000000, 1.000000000000000000, 0.0000000000000000000 ) ) ;
#160 = CC_DESIGN_PERSON_AND_ORGANIZATION_ASSIGNMENT ( #59, #166, ( #192 ) ) ;
#161 = SECURITY_CLASSIFICATION ( '', '', #163 ) ;
#162 = ORGANIZATION ( 'UNSPECIFIED', 'UNSPECIFIED', '' ) ;
#163 = SECURITY_CLASSIFICATION_LEVEL ( 'unclassified' ) ;
#164 = ORIENTED_EDGE ( 'NONE', *, *, #198, .F. ) ;
#165 = AXIS2_PLACEMENT_3D ( 'NONE', #15, #118, #20 ) ;
#166 = PERSON_AND_ORGANIZATION_ROLE ( 'creator' ) ;
#167 = ORIENTED_EDGE ( 'NONE', *, *, #69, .F. ) ;
#168 = SHAPE_DEFINITION_REPRESENTATION ( #6, #110 ) ;
#169 = CARTESIAN_POINT ( 'NONE',  ( 5.586370142149013368E-14, -1.959434878635765131E-15, 16.00000000000000000 ) ) ;
#170 = DIRECTION ( 'NONE',  ( -3.491481338843133355E-15, 1.224646799147353207E-16, -1.000000000000000000 ) ) ;
#171 = CARTESIAN_POINT ( 'NONE',  ( 1.326762908760390423E-13, -4.653657836759941941E-15, 38.00000000000000000 ) ) ;
#172 = DATE_TIME_ROLE ( 'creation_date' ) ;
#173 = EDGE_LOOP ( 'NONE', ( #24 ) ) ;
#174 = PERSON_AND_ORGANIZATION ( #2, #162 ) ;
#175 = APPROVAL_ROLE ( '' ) ;
#176 = CONICAL_SURFACE ( 'NONE', #65, 0.5749999999999952927, 1.134464013796309123 ) ;
#177 = DATE_AND_TIME ( #114, #145 ) ;
#178 = APPLICATION_CONTEXT ( 'configuration controlled 3d designs of mechanical parts and assemblies' ) ;
#179 = CARTESIAN_POINT ( 'NONE',  ( 9.361600797995015308E-16, -3.283607540620165513E-17, 0.2681269034391255413 ) ) ;
#180 = CARTESIAN_POINT ( 'NONE',  ( 9.361600797995015308E-16, -3.283607540620165513E-17, 0.2681269034391255413 ) ) ;
#181 = APPROVAL ( #58, 'UNSPECIFIED' ) ;
#182 = CARTESIAN_POINT ( 'NONE',  ( 9.361600797995017281E-16, 0.5749999999999952927, 0.2681269034391255968 ) ) ;
#183 = DIRECTION ( 'NONE',  ( -3.491481338843133355E-15, 1.224646799147353207E-16, -1.000000000000000000 ) ) ;
#184 = DIRECTION ( 'NONE',  ( 0.0000000000000000000, 1.000000000000000000, 0.0000000000000000000 ) ) ;
#185 = UNCERTAINTY_MEASURE_WITH_UNIT (LENGTH_MEASURE( 1.000000000000000082E-05 ), #156, 'distance_accuracy_value', 'NONE');
#186 = CC_DESIGN_DATE_AND_TIME_ASSIGNMENT ( #25, #4, ( #161 ) ) ;
#187 = APPROVAL_PERSON_ORGANIZATION ( #142, #148, #175 ) ;
#188 = PRODUCT ( '55609', '55609', '', ( #73 ) ) ;
#189 = ADVANCED_FACE ( 'NONE', ( #105 ), #116, .F. ) ;
#190 = EDGE_LOOP ( 'NONE', ( #167 ) ) ;
#191 = PRODUCT_DEFINITION ( 'UNKNOWN', '', #192, #137 ) ;
#192 = PRODUCT_DEFINITION_FORMATION_WITH_SPECIFIED_SOURCE ( 'ANY', '', #188, .NOT_KNOWN. ) ;
#193 = APPROVAL_DATE_TIME ( #12, #124 ) ;
#194 = PERSON_AND_ORGANIZATION_ROLE ( 'creator' ) ;
#195 = COORDINATED_UNIVERSAL_TIME_OFFSET ( 1, 0, .AHEAD. ) ;
#196 = DIRECTION ( 'NONE',  ( -3.491481338843133355E-15, 1.224646799147353207E-16, -1.000000000000000000 ) ) ;
#197 = DIRECTION ( 'NONE',  ( -3.491481338843133355E-15, 1.224646799147353207E-16, -1.000000000000000000 ) ) ;
#198 = EDGE_CURVE ( 'NONE', #135, #135, #106, .T. ) ;
#199 = CC_DESIGN_SECURITY_CLASSIFICATION ( #161, ( #192 ) ) ;
#200 = FACE_OUTER_BOUND ( 'NONE', #150, .T. ) ;
#201 = PLANE ( 'NONE',  #123 ) ;
#202 = FACE_OUTER_BOUND ( 'NONE', #28, .T. ) ;
#203 = AXIS2_PLACEMENT_3D ( 'NONE', #18, #136, #184 ) ;
ENDSEC;
END-ISO-10303-21;
