ISO-10303-21;
HEADER;
FILE_DESCRIPTION (( 'STEP AP203' ),
    '1' );
FILE_NAME ('55607.step',
    '2021-10-06T11:19:51',
    ( '' ),
    ( '' ),
    'SwSTEP 2.0',
    'SolidWorks 2019',
    '' );
FILE_SCHEMA (( 'CONFIG_CONTROL_DESIGN' ));
ENDSEC;

DATA;
#1 = DIRECTION ( 'NONE',  ( 4.275831445896958607E-31, 1.000000000000000000, 1.224646799147353207E-16 ) ) ;
#2 = APPROVAL_PERSON_ORGANIZATION ( #195, #193, #35 ) ;
#3 = CARTESIAN_POINT ( 'NONE',  ( 5.586370142149013368E-14, 0.5499999999999953815, 16.00000000000000000 ) ) ;
#4 = APPROVAL_STATUS ( 'not_yet_approved' ) ;
#5 = CARTESIAN_POINT ( 'NONE',  ( 8.954574676343057607E-16, -3.140841995375809794E-17, 0.2564692119852504670 ) ) ;
#6 = COORDINATED_UNIVERSAL_TIME_OFFSET ( 1, 0, .AHEAD. ) ;
#7 = APPROVAL_DATE_TIME ( #65, #193 ) ;
#8 = SECURITY_CLASSIFICATION_LEVEL ( 'unclassified' ) ;
#9 = EDGE_LOOP ( 'NONE', ( #21 ) ) ;
#10 = APPLICATION_CONTEXT ( 'configuration controlled 3d designs of mechanical parts and assemblies' ) ;
#11 = DIRECTION ( 'NONE',  ( 0.0000000000000000000, 1.000000000000000000, 0.0000000000000000000 ) ) ;
#12 = ORIENTED_EDGE ( 'NONE', *, *, #46, .F. ) ;
#13 = AXIS2_PLACEMENT_3D ( 'NONE', #178, #88, #165 ) ;
#14 = CARTESIAN_POINT ( 'NONE',  ( 1.319779946082704535E-13, -4.629164900776995227E-15, 37.79999999999999716 ) ) ;
#15 = DATE_AND_TIME ( #153, #110 ) ;
#16 = APPLICATION_PROTOCOL_DEFINITION ( 'international standard', 'config_control_design', 1994, #10 ) ;
#17 = AXIS2_PLACEMENT_3D ( 'NONE', #197, #34, #96 ) ;
#18 = PERSON_AND_ORGANIZATION ( #50, #19 ) ;
#19 = ORGANIZATION ( 'UNSPECIFIED', 'UNSPECIFIED', '' ) ;
#20 = SHAPE_DEFINITION_REPRESENTATION ( #67, #133 ) ;
#21 = ORIENTED_EDGE ( 'NONE', *, *, #26, .T. ) ;
#22 = APPROVAL_STATUS ( 'not_yet_approved' ) ;
#23 = DIRECTION ( 'NONE',  ( 4.275831445896958607E-31, 1.000000000000000000, 1.224646799147353207E-16 ) ) ;
#24 = EDGE_LOOP ( 'NONE', ( #84 ) ) ;
#25 = CARTESIAN_POINT ( 'NONE',  ( 5.586370142149013368E-14, 4.124339402320059157E-33, 16.00000000000000000 ) ) ;
#26 = EDGE_CURVE ( 'NONE', #188, #188, #141, .T. ) ;
#27 = DIRECTION ( 'NONE',  ( -3.491481338843133355E-15, 1.224646799147353207E-16, -1.000000000000000000 ) ) ;
#28 =( LENGTH_UNIT ( ) NAMED_UNIT ( * ) SI_UNIT ( .MILLI., .METRE. ) );
#29 = VERTEX_POINT ( 'NONE', #3 ) ;
#30 = DIRECTION ( 'NONE',  ( -3.491481338843133355E-15, 1.224646799147353207E-16, -1.000000000000000000 ) ) ;
#31 = CIRCLE ( 'NONE', #56, 0.5500000000000000444 ) ;
#32 = CC_DESIGN_DATE_AND_TIME_ASSIGNMENT ( #37, #174, ( #155 ) ) ;
#33 = PERSON_AND_ORGANIZATION ( #50, #19 ) ;
#34 = DIRECTION ( 'NONE',  ( -3.491481338843133355E-15, 1.224646799147353207E-16, -1.000000000000000000 ) ) ;
#35 = APPROVAL_ROLE ( '' ) ;
#36 = CARTESIAN_POINT ( 'NONE',  ( 0.0000000000000000000, 0.0000000000000000000, 0.0000000000000000000 ) ) ;
#37 = DATE_AND_TIME ( #143, #187 ) ;
#38 = ORIENTED_EDGE ( 'NONE', *, *, #46, .T. ) ;
#39 = CARTESIAN_POINT ( 'NONE',  ( 5.586370142149013368E-14, 4.124339402320059157E-33, 16.00000000000000000 ) ) ;
#40 = CC_DESIGN_APPROVAL ( #71, ( #43 ) ) ;
#41 = ORIENTED_EDGE ( 'NONE', *, *, #142, .F. ) ;
#42 =( NAMED_UNIT ( * ) PLANE_ANGLE_UNIT ( ) SI_UNIT ( $, .RADIAN. ) );
#43 = PRODUCT_DEFINITION_FORMATION_WITH_SPECIFIED_SOURCE ( 'ANY', '', #173, .NOT_KNOWN. ) ;
#44 = CARTESIAN_POINT ( 'NONE',  ( 1.326762908760390423E-13, -4.653657836759941941E-15, 38.00000000000000000 ) ) ;
#45 = APPROVAL_DATE_TIME ( #168, #95 ) ;
#46 = EDGE_CURVE ( 'NONE', #169, #169, #191, .T. ) ;
#47 = CLOSED_SHELL ( 'NONE', ( #49, #170, #125 ) ) ;
#48 = APPLICATION_CONTEXT ( 'configuration controlled 3d designs of mechanical parts and assemblies' ) ;
#49 = ADVANCED_FACE ( 'NONE', ( #200 ), #151, .T. ) ;
#50 = PERSON ( 'UNSPECIFIED', 'UNSPECIFIED', 'UNSPECIFIED', ('UNSPECIFIED'), ('UNSPECIFIED'), ('UNSPECIFIED') ) ;
#51 = AXIS2_PLACEMENT_3D ( 'NONE', #140, #76, #62 ) ;
#52 = EDGE_LOOP ( 'NONE', ( #12 ) ) ;
#53 = CYLINDRICAL_SURFACE ( 'NONE', #182, 0.5499999999999963807 ) ;
#54 = EDGE_CURVE ( 'NONE', #29, #29, #139, .T. ) ;
#55 = EDGE_LOOP ( 'NONE', ( #41 ) ) ;
#56 = AXIS2_PLACEMENT_3D ( 'NONE', #14, #180, #11 ) ;
#57 = PLANE ( 'NONE',  #196 ) ;
#58 = CARTESIAN_POINT ( 'NONE',  ( 5.586370142149013368E-14, -1.959434878635765131E-15, 16.00000000000000000 ) ) ;
#59 = PLANE ( 'NONE',  #68 ) ;
#60 = CARTESIAN_POINT ( 'NONE',  ( 5.586370142149013368E-14, 0.5499999999999953815, 16.00000000000000000 ) ) ;
#61 = LOCAL_TIME ( 13, 19, 51.00000000000000000, #177 ) ;
#62 = DIRECTION ( 'NONE',  ( 1.000000000000000000, 0.0000000000000000000, 0.0000000000000000000 ) ) ;
#63 = CARTESIAN_POINT ( 'NONE',  ( 1.326762908760390423E-13, 0.3499999999999953704, 38.00000000000000000 ) ) ;
#64 = AXIS2_PLACEMENT_3D ( 'NONE', #58, #147, #130 ) ;
#65 = DATE_AND_TIME ( #80, #61 ) ;
#66 = CC_DESIGN_PERSON_AND_ORGANIZATION_ASSIGNMENT ( #163, #179, ( #43 ) ) ;
#67 = PRODUCT_DEFINITION_SHAPE ( 'NONE', 'NONE',  #106 ) ;
#68 = AXIS2_PLACEMENT_3D ( 'NONE', #138, #27, #1 ) ;
#69 = FACE_OUTER_BOUND ( 'NONE', #129, .T. ) ;
#70 = EDGE_LOOP ( 'NONE', ( #101 ) ) ;
#71 = APPROVAL ( #146, 'UNSPECIFIED' ) ;
#72 = FACE_OUTER_BOUND ( 'NONE', #52, .T. ) ;
#73 = CLOSED_SHELL ( 'NONE', ( #74, #158, #185, #201 ) ) ;
#74 = ADVANCED_FACE ( 'NONE', ( #186 ), #57, .F. ) ;
#75 = FACE_OUTER_BOUND ( 'NONE', #99, .T. ) ;
#76 = DIRECTION ( 'NONE',  ( 0.0000000000000000000, 0.0000000000000000000, 1.000000000000000000 ) ) ;
#77 = CC_DESIGN_APPROVAL ( #95, ( #106 ) ) ;
#78 = APPLICATION_PROTOCOL_DEFINITION ( 'international standard', 'config_control_design', 1994, #48 ) ;
#79 = FACE_BOUND ( 'NONE', #9, .T. ) ;
#80 = CALENDAR_DATE ( 2021, 6, 10 ) ;
#81 = APPROVAL_DATE_TIME ( #160, #71 ) ;
#82 = PERSON_AND_ORGANIZATION ( #50, #19 ) ;
#83 = DIRECTION ( 'NONE',  ( -3.501690807976821919E-31, -1.000000000000000000, -9.856383386231941411E-17 ) ) ;
#84 = ORIENTED_EDGE ( 'NONE', *, *, #26, .F. ) ;
#85 = CC_DESIGN_PERSON_AND_ORGANIZATION_ASSIGNMENT ( #144, #98, ( #43 ) ) ;
#86 = CARTESIAN_POINT ( 'NONE',  ( 1.326762908760390423E-13, -4.653657836759941941E-15, 38.00000000000000000 ) ) ;
#87 =( GEOMETRIC_REPRESENTATION_CONTEXT ( 3 ) GLOBAL_UNCERTAINTY_ASSIGNED_CONTEXT ( ( #109 ) ) GLOBAL_UNIT_ASSIGNED_CONTEXT ( ( #28, #42, #93 ) ) REPRESENTATION_CONTEXT ( 'NONE', 'WORKASPACE' ) );
#88 = DIRECTION ( 'NONE',  ( -3.491481338843133355E-15, 1.224646799147353207E-16, -1.000000000000000000 ) ) ;
#89 = CIRCLE ( 'NONE', #117, 0.5499999999999953815 ) ;
#90 = COORDINATED_UNIVERSAL_TIME_OFFSET ( 1, 0, .AHEAD. ) ;
#91 = FACE_OUTER_BOUND ( 'NONE', #24, .T. ) ;
#92 = CC_DESIGN_SECURITY_CLASSIFICATION ( #155, ( #43 ) ) ;
#93 =( NAMED_UNIT ( * ) SI_UNIT ( $, .STERADIAN. ) SOLID_ANGLE_UNIT ( ) );
#94 = DATE_TIME_ROLE ( 'creation_date' ) ;
#95 = APPROVAL ( #4, 'UNSPECIFIED' ) ;
#96 = DIRECTION ( 'NONE',  ( 4.275831445896958607E-31, 1.000000000000000000, 1.224646799147353207E-16 ) ) ;
#97 = DIRECTION ( 'NONE',  ( -3.491481338843133355E-15, 1.224646799147353207E-16, -1.000000000000000000 ) ) ;
#98 = PERSON_AND_ORGANIZATION_ROLE ( 'design_supplier' ) ;
#99 = EDGE_LOOP ( 'NONE', ( #167 ) ) ;
#100 = CC_DESIGN_PERSON_AND_ORGANIZATION_ASSIGNMENT ( #172, #157, ( #106 ) ) ;
#101 = ORIENTED_EDGE ( 'NONE', *, *, #198, .F. ) ;
#102 = AXIS2_PLACEMENT_3D ( 'NONE', #113, #116, #83 ) ;
#103 = AXIS2_PLACEMENT_3D ( 'NONE', #39, #152, #149 ) ;
#104 = ORIENTED_EDGE ( 'NONE', *, *, #198, .T. ) ;
#105 = MANIFOLD_SOLID_BREP ( 'Corps-Déplacer/Copier1[1]', #73 ) ;
#106 = PRODUCT_DEFINITION ( 'UNKNOWN', '', #43, #175 ) ;
#107 = CARTESIAN_POINT ( 'NONE',  ( 8.954574676343059579E-16, 0.5499999999999953815, 0.2564692119852505225 ) ) ;
#108 = MECHANICAL_CONTEXT ( 'NONE', #10, 'mechanical' ) ;
#109 = UNCERTAINTY_MEASURE_WITH_UNIT (LENGTH_MEASURE( 1.000000000000000082E-05 ), #28, 'distance_accuracy_value', 'NONE');
#110 = LOCAL_TIME ( 13, 19, 51.00000000000000000, #90 ) ;
#111 = APPROVAL_ROLE ( '' ) ;
#112 = CC_DESIGN_DATE_AND_TIME_ASSIGNMENT ( #15, #94, ( #106 ) ) ;
#113 = CARTESIAN_POINT ( 'NONE',  ( 8.954574676343057607E-16, -3.140841995375809794E-17, 0.2564692119852504670 ) ) ;
#114 = ORIENTED_EDGE ( 'NONE', *, *, #142, .T. ) ;
#115 = PERSON_AND_ORGANIZATION_ROLE ( 'classification_officer' ) ;
#116 = DIRECTION ( 'NONE',  ( 3.491481338843133355E-15, -1.224646799147353207E-16, 1.000000000000000000 ) ) ;
#117 = AXIS2_PLACEMENT_3D ( 'NONE', #5, #30, #189 ) ;
#118 = DIRECTION ( 'NONE',  ( 3.491481338843133355E-15, -1.224646799147353207E-16, 1.000000000000000000 ) ) ;
#119 = CC_DESIGN_APPROVAL ( #193, ( #155 ) ) ;
#120 = DIRECTION ( 'NONE',  ( -3.491481338843133355E-15, 1.224646799147353207E-16, -1.000000000000000000 ) ) ;
#121 = PRODUCT_RELATED_PRODUCT_CATEGORY ( 'detail', '', ( #173 ) ) ;
#122 = CALENDAR_DATE ( 2021, 6, 10 ) ;
#123 = COORDINATED_UNIVERSAL_TIME_OFFSET ( 1, 0, .AHEAD. ) ;
#124 = FACE_OUTER_BOUND ( 'NONE', #55, .T. ) ;
#125 = ADVANCED_FACE ( 'NONE', ( #75 ), #184, .T. ) ;
#126 = COORDINATED_UNIVERSAL_TIME_OFFSET ( 1, 0, .AHEAD. ) ;
#127 = AXIS2_PLACEMENT_3D ( 'NONE', #44, #120, #156 ) ;
#128 = DIRECTION ( 'NONE',  ( -4.275831445896958607E-31, -1.000000000000000000, -1.224646799147353207E-16 ) ) ;
#129 = EDGE_LOOP ( 'NONE', ( #203 ) ) ;
#130 = DIRECTION ( 'NONE',  ( 0.0000000000000000000, 1.000000000000000000, 0.0000000000000000000 ) ) ;
#131 = LOCAL_TIME ( 13, 19, 51.00000000000000000, #123 ) ;
#132 = CYLINDRICAL_SURFACE ( 'NONE', #17, 0.5499999999999986011 ) ;
#133 = ADVANCED_BREP_SHAPE_REPRESENTATION ( '55607', ( #105, #176, #51 ), #87 ) ;
#134 = CC_DESIGN_PERSON_AND_ORGANIZATION_ASSIGNMENT ( #18, #192, ( #173 ) ) ;
#135 = CONICAL_SURFACE ( 'NONE', #127, 0.3500000000000000333, 0.7853981633974512766 ) ;
#136 = PERSON_AND_ORGANIZATION ( #50, #19 ) ;
#137 = CC_DESIGN_PERSON_AND_ORGANIZATION_ASSIGNMENT ( #33, #115, ( #155 ) ) ;
#138 = CARTESIAN_POINT ( 'NONE',  ( 1.326762908760390423E-13, 2.624579619658181365E-33, 38.00000000000000000 ) ) ;
#139 = CIRCLE ( 'NONE', #64, 0.5499999999999972689 ) ;
#140 = CARTESIAN_POINT ( 'NONE',  ( 0.0000000000000000000, 0.0000000000000000000, 0.0000000000000000000 ) ) ;
#141 = CIRCLE ( 'NONE', #161, 0.3500000000000000333 ) ;
#142 = EDGE_CURVE ( 'NONE', #154, #154, #31, .T. ) ;
#143 = CALENDAR_DATE ( 2021, 6, 10 ) ;
#144 = PERSON_AND_ORGANIZATION ( #50, #19 ) ;
#145 = FACE_OUTER_BOUND ( 'NONE', #70, .T. ) ;
#146 = APPROVAL_STATUS ( 'not_yet_approved' ) ;
#147 = DIRECTION ( 'NONE',  ( -3.491481338843133355E-15, 1.224646799147353207E-16, -1.000000000000000000 ) ) ;
#148 = DIRECTION ( 'NONE',  ( -3.491481338843133355E-15, 1.224646799147353207E-16, -1.000000000000000000 ) ) ;
#149 = DIRECTION ( 'NONE',  ( -4.275831445896958607E-31, -1.000000000000000000, -1.224646799147353207E-16 ) ) ;
#150 = LOCAL_TIME ( 13, 19, 51.00000000000000000, #126 ) ;
#151 = CONICAL_SURFACE ( 'NONE', #102, 0.5499999999999953815, 1.134464013796309123 ) ;
#152 = DIRECTION ( 'NONE',  ( 3.491481338843133355E-15, -1.224646799147353207E-16, 1.000000000000000000 ) ) ;
#153 = CALENDAR_DATE ( 2021, 6, 10 ) ;
#154 = VERTEX_POINT ( 'NONE', #190 ) ;
#155 = SECURITY_CLASSIFICATION ( '', '', #8 ) ;
#156 = DIRECTION ( 'NONE',  ( 0.0000000000000000000, 1.000000000000000000, 0.0000000000000000000 ) ) ;
#157 = PERSON_AND_ORGANIZATION_ROLE ( 'creator' ) ;
#158 = ADVANCED_FACE ( 'NONE', ( #72, #199 ), #132, .T. ) ;
#159 = APPROVAL_PERSON_ORGANIZATION ( #82, #71, #181 ) ;
#160 = DATE_AND_TIME ( #194, #150 ) ;
#161 = AXIS2_PLACEMENT_3D ( 'NONE', #86, #148, #164 ) ;
#162 = EDGE_LOOP ( 'NONE', ( #114 ) ) ;
#163 = PERSON_AND_ORGANIZATION ( #50, #19 ) ;
#164 = DIRECTION ( 'NONE',  ( 0.0000000000000000000, 1.000000000000000000, 0.0000000000000000000 ) ) ;
#165 = DIRECTION ( 'NONE',  ( 0.0000000000000000000, 1.000000000000000000, 0.0000000000000000000 ) ) ;
#166 = APPROVAL_PERSON_ORGANIZATION ( #136, #95, #111 ) ;
#167 = ORIENTED_EDGE ( 'NONE', *, *, #54, .F. ) ;
#168 = DATE_AND_TIME ( #122, #131 ) ;
#169 = VERTEX_POINT ( 'NONE', #60 ) ;
#170 = ADVANCED_FACE ( 'NONE', ( #145, #69 ), #53, .T. ) ;
#171 = VERTEX_POINT ( 'NONE', #107 ) ;
#172 = PERSON_AND_ORGANIZATION ( #50, #19 ) ;
#173 = PRODUCT ( '55607', '55607', '', ( #108 ) ) ;
#174 = DATE_TIME_ROLE ( 'classification_date' ) ;
#175 = DESIGN_CONTEXT ( 'detailed design', #48, 'design' ) ;
#176 = MANIFOLD_SOLID_BREP ( 'Corps-Déplacer/Copier1[2]', #47 ) ;
#177 = COORDINATED_UNIVERSAL_TIME_OFFSET ( 1, 0, .AHEAD. ) ;
#178 = CARTESIAN_POINT ( 'NONE',  ( 5.586370142149013368E-14, -1.959434878635765131E-15, 16.00000000000000000 ) ) ;
#179 = PERSON_AND_ORGANIZATION_ROLE ( 'creator' ) ;
#180 = DIRECTION ( 'NONE',  ( -3.491481338843133355E-15, 1.224646799147353207E-16, -1.000000000000000000 ) ) ;
#181 = APPROVAL_ROLE ( '' ) ;
#182 = AXIS2_PLACEMENT_3D ( 'NONE', #36, #97, #23 ) ;
#183 = EDGE_LOOP ( 'NONE', ( #38 ) ) ;
#184 = PLANE ( 'NONE',  #103 ) ;
#185 = ADVANCED_FACE ( 'NONE', ( #124, #79 ), #135, .T. ) ;
#186 = FACE_OUTER_BOUND ( 'NONE', #183, .T. ) ;
#187 = LOCAL_TIME ( 13, 19, 51.00000000000000000, #6 ) ;
#188 = VERTEX_POINT ( 'NONE', #63 ) ;
#189 = DIRECTION ( 'NONE',  ( 3.501690807976821919E-31, 1.000000000000000000, 9.856383386231941411E-17 ) ) ;
#190 = CARTESIAN_POINT ( 'NONE',  ( 1.319779946082704535E-13, 0.5499999999999953815, 37.79999999999999716 ) ) ;
#191 = CIRCLE ( 'NONE', #13, 0.5499999999999972689 ) ;
#192 = PERSON_AND_ORGANIZATION_ROLE ( 'design_owner' ) ;
#193 = APPROVAL ( #22, 'UNSPECIFIED' ) ;
#194 = CALENDAR_DATE ( 2021, 6, 10 ) ;
#195 = PERSON_AND_ORGANIZATION ( #50, #19 ) ;
#196 = AXIS2_PLACEMENT_3D ( 'NONE', #25, #118, #128 ) ;
#197 = CARTESIAN_POINT ( 'NONE',  ( 0.0000000000000000000, 0.0000000000000000000, 0.0000000000000000000 ) ) ;
#198 = EDGE_CURVE ( 'NONE', #171, #171, #89, .T. ) ;
#199 = FACE_OUTER_BOUND ( 'NONE', #162, .T. ) ;
#200 = FACE_OUTER_BOUND ( 'NONE', #202, .T. ) ;
#201 = ADVANCED_FACE ( 'NONE', ( #91 ), #59, .F. ) ;
#202 = EDGE_LOOP ( 'NONE', ( #104 ) ) ;
#203 = ORIENTED_EDGE ( 'NONE', *, *, #54, .T. ) ;
ENDSEC;
END-ISO-10303-21;
