ISO-10303-21;
HEADER;
FILE_DESCRIPTION (( 'STEP AP203' ),
    '1' );
FILE_NAME ('55605.step',
    '2021-10-06T11:19:50',
    ( '' ),
    ( '' ),
    'SwSTEP 2.0',
    'SolidWorks 2019',
    '' );
FILE_SCHEMA (( 'CONFIG_CONTROL_DESIGN' ));
ENDSEC;

DATA;
#1 = APPLICATION_CONTEXT ( 'configuration controlled 3d designs of mechanical parts and assemblies' ) ;
#2 = ORIENTED_EDGE ( 'NONE', *, *, #43, .T. ) ;
#3 = CIRCLE ( 'NONE', #143, 0.5249999999999953593 ) ;
#4 = FACE_OUTER_BOUND ( 'NONE', #50, .T. ) ;
#5 = AXIS2_PLACEMENT_3D ( 'NONE', #194, #147, #178 ) ;
#6 = DIRECTION ( 'NONE',  ( -3.491481338843133355E-15, 1.224646799147353207E-16, -1.000000000000000000 ) ) ;
#7 = CARTESIAN_POINT ( 'NONE',  ( 5.586370142149013368E-14, 0.5249999999999953593, 16.00000000000000000 ) ) ;
#8 = DIRECTION ( 'NONE',  ( 0.0000000000000000000, 1.000000000000000000, 0.0000000000000000000 ) ) ;
#9 = LOCAL_TIME ( 13, 19, 50.00000000000000000, #109 ) ;
#10 = PLANE ( 'NONE',  #157 ) ;
#11 = DIRECTION ( 'NONE',  ( -3.491481338843133355E-15, 1.224646799147353207E-16, -1.000000000000000000 ) ) ;
#12 = COORDINATED_UNIVERSAL_TIME_OFFSET ( 1, 0, .AHEAD. ) ;
#13 = LOCAL_TIME ( 13, 19, 50.00000000000000000, #12 ) ;
#14 = PERSON_AND_ORGANIZATION ( #42, #111 ) ;
#15 = CARTESIAN_POINT ( 'NONE',  ( 0.0000000000000000000, 0.0000000000000000000, 0.0000000000000000000 ) ) ;
#16 = PERSON_AND_ORGANIZATION_ROLE ( 'creator' ) ;
#17 = ADVANCED_FACE ( 'NONE', ( #174 ), #70, .T. ) ;
#18 = ORIENTED_EDGE ( 'NONE', *, *, #38, .T. ) ;
#19 = APPROVAL_STATUS ( 'not_yet_approved' ) ;
#20 = APPROVAL ( #122, 'UNSPECIFIED' ) ;
#21 = ORIENTED_EDGE ( 'NONE', *, *, #43, .F. ) ;
#22 = FACE_OUTER_BOUND ( 'NONE', #128, .T. ) ;
#23 = AXIS2_PLACEMENT_3D ( 'NONE', #148, #163, #180 ) ;
#24 = VERTEX_POINT ( 'NONE', #88 ) ;
#25 = ADVANCED_FACE ( 'NONE', ( #142, #4 ), #69, .T. ) ;
#26 =( NAMED_UNIT ( * ) SI_UNIT ( $, .STERADIAN. ) SOLID_ANGLE_UNIT ( ) );
#27 = CIRCLE ( 'NONE', #133, 0.5249999999999973577 ) ;
#28 = DIRECTION ( 'NONE',  ( -3.491481338843133355E-15, 1.224646799147353207E-16, -1.000000000000000000 ) ) ;
#29 = DATE_AND_TIME ( #168, #13 ) ;
#30 = APPROVAL_DATE_TIME ( #169, #20 ) ;
#31 = CIRCLE ( 'NONE', #57, 0.5250000000000000222 ) ;
#32 = EDGE_CURVE ( 'NONE', #56, #56, #120, .T. ) ;
#33 = ADVANCED_BREP_SHAPE_REPRESENTATION ( '55605', ( #175, #107, #200 ), #164 ) ;
#34 = ADVANCED_FACE ( 'NONE', ( #98, #91 ), #192, .T. ) ;
#35 = ORIENTED_EDGE ( 'NONE', *, *, #119, .T. ) ;
#36 = DIRECTION ( 'NONE',  ( 3.491481338843133355E-15, -1.224646799147353207E-16, 1.000000000000000000 ) ) ;
#37 = FACE_OUTER_BOUND ( 'NONE', #52, .T. ) ;
#38 = EDGE_CURVE ( 'NONE', #41, #41, #3, .T. ) ;
#39 = FACE_OUTER_BOUND ( 'NONE', #191, .T. ) ;
#40 = APPROVAL_PERSON_ORGANIZATION ( #137, #20, #49 ) ;
#41 = VERTEX_POINT ( 'NONE', #177 ) ;
#42 = PERSON ( 'UNSPECIFIED', 'UNSPECIFIED', 'UNSPECIFIED', ('UNSPECIFIED'), ('UNSPECIFIED'), ('UNSPECIFIED') ) ;
#43 = EDGE_CURVE ( 'NONE', #24, #24, #31, .T. ) ;
#44 = CARTESIAN_POINT ( 'NONE',  ( 5.586370142149013368E-14, -1.959434878635765131E-15, 16.00000000000000000 ) ) ;
#45 = APPROVAL_PERSON_ORGANIZATION ( #198, #101, #170 ) ;
#46 = COORDINATED_UNIVERSAL_TIME_OFFSET ( 1, 0, .AHEAD. ) ;
#47 = CALENDAR_DATE ( 2021, 6, 10 ) ;
#48 = DESIGN_CONTEXT ( 'detailed design', #1, 'design' ) ;
#49 = APPROVAL_ROLE ( '' ) ;
#50 = EDGE_LOOP ( 'NONE', ( #161 ) ) ;
#51 = DATE_TIME_ROLE ( 'creation_date' ) ;
#52 = EDGE_LOOP ( 'NONE', ( #84 ) ) ;
#53 = DIRECTION ( 'NONE',  ( -3.668437989309053182E-31, -1.000000000000000000, -1.032573497605251469E-16 ) ) ;
#54 = CARTESIAN_POINT ( 'NONE',  ( 1.326762908760390423E-13, -4.653657836759941941E-15, 38.00000000000000000 ) ) ;
#55 = ADVANCED_FACE ( 'NONE', ( #37, #39 ), #195, .T. ) ;
#56 = VERTEX_POINT ( 'NONE', #116 ) ;
#57 = AXIS2_PLACEMENT_3D ( 'NONE', #115, #6, #74 ) ;
#58 = DIRECTION ( 'NONE',  ( -3.491481338843133355E-15, 1.224646799147353207E-16, -1.000000000000000000 ) ) ;
#59 = CARTESIAN_POINT ( 'NONE',  ( 5.586370142149013368E-14, -1.959434878635765131E-15, 16.00000000000000000 ) ) ;
#60 = CARTESIAN_POINT ( 'NONE',  ( 8.547548554691094975E-16, -2.998076450131453459E-17, 0.2448115205313753373 ) ) ;
#61 = AXIS2_PLACEMENT_3D ( 'NONE', #59, #28, #176 ) ;
#62 = APPROVAL_ROLE ( '' ) ;
#63 = CC_DESIGN_DATE_AND_TIME_ASSIGNMENT ( #123, #51, ( #71 ) ) ;
#64 = APPLICATION_PROTOCOL_DEFINITION ( 'international standard', 'config_control_design', 1994, #1 ) ;
#65 = SECURITY_CLASSIFICATION ( '', '', #172 ) ;
#66 = DIRECTION ( 'NONE',  ( 1.000000000000000000, 0.0000000000000000000, 0.0000000000000000000 ) ) ;
#67 = EDGE_LOOP ( 'NONE', ( #18 ) ) ;
#68 = CC_DESIGN_APPROVAL ( #20, ( #65 ) ) ;
#69 = CYLINDRICAL_SURFACE ( 'NONE', #90, 0.5249999999999963585 ) ;
#70 = CONICAL_SURFACE ( 'NONE', #181, 0.5249999999999953593, 1.134464013796309123 ) ;
#71 = PRODUCT_DEFINITION ( 'UNKNOWN', '', #103, #48 ) ;
#72 = CARTESIAN_POINT ( 'NONE',  ( 5.586370142149013368E-14, 3.936869429487326956E-33, 16.00000000000000000 ) ) ;
#73 = VERTEX_POINT ( 'NONE', #132 ) ;
#74 = DIRECTION ( 'NONE',  ( 0.0000000000000000000, 1.000000000000000000, 0.0000000000000000000 ) ) ;
#75 = DIRECTION ( 'NONE',  ( -4.275831445896958607E-31, -1.000000000000000000, -1.224646799147353207E-16 ) ) ;
#76 = DIRECTION ( 'NONE',  ( 0.0000000000000000000, 1.000000000000000000, 0.0000000000000000000 ) ) ;
#77 = DATE_AND_TIME ( #187, #126 ) ;
#78 = LOCAL_TIME ( 13, 19, 50.00000000000000000, #46 ) ;
#79 = PERSON_AND_ORGANIZATION ( #42, #111 ) ;
#80 = PERSON_AND_ORGANIZATION ( #42, #111 ) ;
#81 = APPLICATION_PROTOCOL_DEFINITION ( 'international standard', 'config_control_design', 1994, #129 ) ;
#82 = CLOSED_SHELL ( 'NONE', ( #17, #25, #160 ) ) ;
#83 = CC_DESIGN_APPROVAL ( #101, ( #71 ) ) ;
#84 = ORIENTED_EDGE ( 'NONE', *, *, #32, .F. ) ;
#85 = EDGE_LOOP ( 'NONE', ( #21 ) ) ;
#86 = AXIS2_PLACEMENT_3D ( 'NONE', #149, #197, #76 ) ;
#87 = FACE_OUTER_BOUND ( 'NONE', #110, .T. ) ;
#88 = CARTESIAN_POINT ( 'NONE',  ( 1.319779946082704535E-13, 0.5249999999999953593, 37.79999999999999716 ) ) ;
#89 = PRODUCT_DEFINITION_SHAPE ( 'NONE', 'NONE',  #71 ) ;
#90 = AXIS2_PLACEMENT_3D ( 'NONE', #135, #11, #118 ) ;
#91 = FACE_BOUND ( 'NONE', #190, .T. ) ;
#92 = PERSON_AND_ORGANIZATION_ROLE ( 'creator' ) ;
#93 = SHAPE_DEFINITION_REPRESENTATION ( #89, #33 ) ;
#94 = PRODUCT_RELATED_PRODUCT_CATEGORY ( 'detail', '', ( #152 ) ) ;
#95 = DATE_TIME_ROLE ( 'classification_date' ) ;
#96 = ORIENTED_EDGE ( 'NONE', *, *, #38, .F. ) ;
#97 = CIRCLE ( 'NONE', #189, 0.3250000000000000666 ) ;
#98 = FACE_OUTER_BOUND ( 'NONE', #85, .T. ) ;
#99 = APPROVAL_PERSON_ORGANIZATION ( #113, #127, #62 ) ;
#100 = DIRECTION ( 'NONE',  ( 0.0000000000000000000, 1.000000000000000000, 0.0000000000000000000 ) ) ;
#101 = APPROVAL ( #124, 'UNSPECIFIED' ) ;
#102 = FACE_OUTER_BOUND ( 'NONE', #159, .T. ) ;
#103 = PRODUCT_DEFINITION_FORMATION_WITH_SPECIFIED_SOURCE ( 'ANY', '', #152, .NOT_KNOWN. ) ;
#104 = DIRECTION ( 'NONE',  ( -3.491481338843133355E-15, 1.224646799147353207E-16, -1.000000000000000000 ) ) ;
#105 = CC_DESIGN_PERSON_AND_ORGANIZATION_ASSIGNMENT ( #14, #201, ( #152 ) ) ;
#106 = APPROVAL_DATE_TIME ( #29, #127 ) ;
#107 = MANIFOLD_SOLID_BREP ( 'Corps-Déplacer/Copier1[2]', #82 ) ;
#108 = CALENDAR_DATE ( 2021, 6, 10 ) ;
#109 = COORDINATED_UNIVERSAL_TIME_OFFSET ( 1, 0, .AHEAD. ) ;
#110 = EDGE_LOOP ( 'NONE', ( #193 ) ) ;
#111 = ORGANIZATION ( 'UNSPECIFIED', 'UNSPECIFIED', '' ) ;
#112 = CC_DESIGN_PERSON_AND_ORGANIZATION_ASSIGNMENT ( #139, #151, ( #103 ) ) ;
#113 = PERSON_AND_ORGANIZATION ( #42, #111 ) ;
#114 = EDGE_CURVE ( 'NONE', #146, #146, #27, .T. ) ;
#115 = CARTESIAN_POINT ( 'NONE',  ( 1.319779946082704535E-13, -4.629164900776995227E-15, 37.79999999999999716 ) ) ;
#116 = CARTESIAN_POINT ( 'NONE',  ( 5.586370142149013368E-14, 0.5249999999999953593, 16.00000000000000000 ) ) ;
#117 = DIRECTION ( 'NONE',  ( -3.491481338843133355E-15, 1.224646799147353207E-16, -1.000000000000000000 ) ) ;
#118 = DIRECTION ( 'NONE',  ( 4.275831445896958607E-31, 1.000000000000000000, 1.224646799147353454E-16 ) ) ;
#119 = EDGE_CURVE ( 'NONE', #73, #73, #97, .T. ) ;
#120 = CIRCLE ( 'NONE', #61, 0.5249999999999973577 ) ;
#121 = AXIS2_PLACEMENT_3D ( 'NONE', #72, #165, #144 ) ;
#122 = APPROVAL_STATUS ( 'not_yet_approved' ) ;
#123 = DATE_AND_TIME ( #108, #78 ) ;
#124 = APPROVAL_STATUS ( 'not_yet_approved' ) ;
#125 = CC_DESIGN_DATE_AND_TIME_ASSIGNMENT ( #77, #95, ( #65 ) ) ;
#126 = LOCAL_TIME ( 13, 19, 50.00000000000000000, #185 ) ;
#127 = APPROVAL ( #19, 'UNSPECIFIED' ) ;
#128 = EDGE_LOOP ( 'NONE', ( #171 ) ) ;
#129 = APPLICATION_CONTEXT ( 'configuration controlled 3d designs of mechanical parts and assemblies' ) ;
#130 = EDGE_LOOP ( 'NONE', ( #96 ) ) ;
#131 = PLANE ( 'NONE',  #5 ) ;
#132 = CARTESIAN_POINT ( 'NONE',  ( 1.326762908760390423E-13, 0.3249999999999954037, 38.00000000000000000 ) ) ;
#133 = AXIS2_PLACEMENT_3D ( 'NONE', #44, #104, #100 ) ;
#134 = CARTESIAN_POINT ( 'NONE',  ( 5.586370142149013368E-14, 3.936869429487326956E-33, 16.00000000000000000 ) ) ;
#135 = CARTESIAN_POINT ( 'NONE',  ( 0.0000000000000000000, 0.0000000000000000000, 0.0000000000000000000 ) ) ;
#136 = DIRECTION ( 'NONE',  ( 3.668437989309053182E-31, 1.000000000000000000, 1.032573497605251469E-16 ) ) ;
#137 = PERSON_AND_ORGANIZATION ( #42, #111 ) ;
#138 = COORDINATED_UNIVERSAL_TIME_OFFSET ( 1, 0, .AHEAD. ) ;
#139 = PERSON_AND_ORGANIZATION ( #42, #111 ) ;
#140 = MECHANICAL_CONTEXT ( 'NONE', #129, 'mechanical' ) ;
#141 = ADVANCED_FACE ( 'NONE', ( #22 ), #10, .F. ) ;
#142 = FACE_OUTER_BOUND ( 'NONE', #130, .T. ) ;
#143 = AXIS2_PLACEMENT_3D ( 'NONE', #60, #117, #136 ) ;
#144 = DIRECTION ( 'NONE',  ( -4.275831445896958607E-31, -1.000000000000000000, -1.224646799147353207E-16 ) ) ;
#145 = CC_DESIGN_PERSON_AND_ORGANIZATION_ASSIGNMENT ( #80, #92, ( #103 ) ) ;
#146 = VERTEX_POINT ( 'NONE', #7 ) ;
#147 = DIRECTION ( 'NONE',  ( -3.491481338843133355E-15, 1.224646799147353207E-16, -1.000000000000000000 ) ) ;
#148 = CARTESIAN_POINT ( 'NONE',  ( 0.0000000000000000000, 0.0000000000000000000, 0.0000000000000000000 ) ) ;
#149 = CARTESIAN_POINT ( 'NONE',  ( 1.326762908760390423E-13, -4.653657836759941941E-15, 38.00000000000000000 ) ) ;
#150 = UNCERTAINTY_MEASURE_WITH_UNIT (LENGTH_MEASURE( 1.000000000000000082E-05 ), #166, 'distance_accuracy_value', 'NONE');
#151 = PERSON_AND_ORGANIZATION_ROLE ( 'design_supplier' ) ;
#152 = PRODUCT ( '55605', '55605', '', ( #140 ) ) ;
#153 = LOCAL_TIME ( 13, 19, 50.00000000000000000, #138 ) ;
#154 = DATE_AND_TIME ( #155, #9 ) ;
#155 = CALENDAR_DATE ( 2021, 6, 10 ) ;
#156 = CLOSED_SHELL ( 'NONE', ( #141, #55, #34, #199 ) ) ;
#157 = AXIS2_PLACEMENT_3D ( 'NONE', #134, #167, #75 ) ;
#158 = ORIENTED_EDGE ( 'NONE', *, *, #119, .F. ) ;
#159 = EDGE_LOOP ( 'NONE', ( #158 ) ) ;
#160 = ADVANCED_FACE ( 'NONE', ( #87 ), #179, .T. ) ;
#161 = ORIENTED_EDGE ( 'NONE', *, *, #114, .T. ) ;
#162 = CC_DESIGN_PERSON_AND_ORGANIZATION_ASSIGNMENT ( #79, #202, ( #65 ) ) ;
#163 = DIRECTION ( 'NONE',  ( -3.491481338843133355E-15, 1.224646799147353207E-16, -1.000000000000000000 ) ) ;
#164 =( GEOMETRIC_REPRESENTATION_CONTEXT ( 3 ) GLOBAL_UNCERTAINTY_ASSIGNED_CONTEXT ( ( #150 ) ) GLOBAL_UNIT_ASSIGNED_CONTEXT ( ( #166, #196, #26 ) ) REPRESENTATION_CONTEXT ( 'NONE', 'WORKASPACE' ) );
#165 = DIRECTION ( 'NONE',  ( 3.491481338843133355E-15, -1.224646799147353207E-16, 1.000000000000000000 ) ) ;
#166 =( LENGTH_UNIT ( ) NAMED_UNIT ( * ) SI_UNIT ( .MILLI., .METRE. ) );
#167 = DIRECTION ( 'NONE',  ( 3.491481338843133355E-15, -1.224646799147353207E-16, 1.000000000000000000 ) ) ;
#168 = CALENDAR_DATE ( 2021, 6, 10 ) ;
#169 = DATE_AND_TIME ( #47, #153 ) ;
#170 = APPROVAL_ROLE ( '' ) ;
#171 = ORIENTED_EDGE ( 'NONE', *, *, #32, .T. ) ;
#172 = SECURITY_CLASSIFICATION_LEVEL ( 'unclassified' ) ;
#173 = CARTESIAN_POINT ( 'NONE',  ( 8.547548554691094975E-16, -2.998076450131453459E-17, 0.2448115205313753373 ) ) ;
#174 = FACE_OUTER_BOUND ( 'NONE', #67, .T. ) ;
#175 = MANIFOLD_SOLID_BREP ( 'Corps-Déplacer/Copier1[1]', #156 ) ;
#176 = DIRECTION ( 'NONE',  ( 0.0000000000000000000, 1.000000000000000000, 0.0000000000000000000 ) ) ;
#177 = CARTESIAN_POINT ( 'NONE',  ( 8.547548554691096947E-16, 0.5249999999999953593, 0.2448115205313753928 ) ) ;
#178 = DIRECTION ( 'NONE',  ( 4.275831445896958607E-31, 1.000000000000000000, 1.224646799147353207E-16 ) ) ;
#179 = PLANE ( 'NONE',  #121 ) ;
#180 = DIRECTION ( 'NONE',  ( 4.275831445896958607E-31, 1.000000000000000000, 1.224646799147352961E-16 ) ) ;
#181 = AXIS2_PLACEMENT_3D ( 'NONE', #173, #36, #53 ) ;
#182 = CC_DESIGN_SECURITY_CLASSIFICATION ( #65, ( #103 ) ) ;
#183 = APPROVAL_DATE_TIME ( #154, #101 ) ;
#184 = CC_DESIGN_PERSON_AND_ORGANIZATION_ASSIGNMENT ( #188, #16, ( #71 ) ) ;
#185 = COORDINATED_UNIVERSAL_TIME_OFFSET ( 1, 0, .AHEAD. ) ;
#186 = DIRECTION ( 'NONE',  ( 0.0000000000000000000, 0.0000000000000000000, 1.000000000000000000 ) ) ;
#187 = CALENDAR_DATE ( 2021, 6, 10 ) ;
#188 = PERSON_AND_ORGANIZATION ( #42, #111 ) ;
#189 = AXIS2_PLACEMENT_3D ( 'NONE', #54, #58, #8 ) ;
#190 = EDGE_LOOP ( 'NONE', ( #35 ) ) ;
#191 = EDGE_LOOP ( 'NONE', ( #2 ) ) ;
#192 = CONICAL_SURFACE ( 'NONE', #86, 0.3250000000000000666, 0.7853981633974512766 ) ;
#193 = ORIENTED_EDGE ( 'NONE', *, *, #114, .F. ) ;
#194 = CARTESIAN_POINT ( 'NONE',  ( 1.326762908760390423E-13, 2.437109646825449506E-33, 38.00000000000000000 ) ) ;
#195 = CYLINDRICAL_SURFACE ( 'NONE', #23, 0.5249999999999988010 ) ;
#196 =( NAMED_UNIT ( * ) PLANE_ANGLE_UNIT ( ) SI_UNIT ( $, .RADIAN. ) );
#197 = DIRECTION ( 'NONE',  ( -3.491481338843133355E-15, 1.224646799147353207E-16, -1.000000000000000000 ) ) ;
#198 = PERSON_AND_ORGANIZATION ( #42, #111 ) ;
#199 = ADVANCED_FACE ( 'NONE', ( #102 ), #131, .F. ) ;
#200 = AXIS2_PLACEMENT_3D ( 'NONE', #15, #186, #66 ) ;
#201 = PERSON_AND_ORGANIZATION_ROLE ( 'design_owner' ) ;
#202 = PERSON_AND_ORGANIZATION_ROLE ( 'classification_officer' ) ;
#203 = CC_DESIGN_APPROVAL ( #127, ( #103 ) ) ;
ENDSEC;
END-ISO-10303-21;
