ISO-10303-21;
HEADER;
FILE_DESCRIPTION (( 'STEP AP203' ),
    '1' );
FILE_NAME ('55603.step',
    '2021-10-06T11:19:49',
    ( '' ),
    ( '' ),
    'SwSTEP 2.0',
    'SolidWorks 2019',
    '' );
FILE_SCHEMA (( 'CONFIG_CONTROL_DESIGN' ));
ENDSEC;

DATA;
#1 = EDGE_LOOP ( 'NONE', ( #140 ) ) ;
#2 = APPLICATION_PROTOCOL_DEFINITION ( 'international standard', 'config_control_design', 1994, #102 ) ;
#3 = FACE_OUTER_BOUND ( 'NONE', #99, .T. ) ;
#4 = DIRECTION ( 'NONE',  ( 1.000000000000000000, 0.0000000000000000000, 0.0000000000000000000 ) ) ;
#5 = CLOSED_SHELL ( 'NONE', ( #73, #107, #160, #180 ) ) ;
#6 = PRODUCT_DEFINITION_SHAPE ( 'NONE', 'NONE',  #27 ) ;
#7 = APPROVAL ( #101, 'UNSPECIFIED' ) ;
#8 = CYLINDRICAL_SURFACE ( 'NONE', #57, 0.4999999999999963363 ) ;
#9 = LOCAL_TIME ( 13, 19, 49.00000000000000000, #202 ) ;
#10 = DIRECTION ( 'NONE',  ( -3.491481338843133355E-15, 1.224646799147353207E-16, -1.000000000000000000 ) ) ;
#11 = FACE_BOUND ( 'NONE', #114, .T. ) ;
#12 = CC_DESIGN_SECURITY_CLASSIFICATION ( #137, ( #110 ) ) ;
#13 = CC_DESIGN_DATE_AND_TIME_ASSIGNMENT ( #15, #157, ( #137 ) ) ;
#14 = ORGANIZATION ( 'UNSPECIFIED', 'UNSPECIFIED', '' ) ;
#15 = DATE_AND_TIME ( #149, #89 ) ;
#16 = ORIENTED_EDGE ( 'NONE', *, *, #66, .T. ) ;
#17 = DATE_AND_TIME ( #83, #9 ) ;
#18 = PERSON_AND_ORGANIZATION ( #113, #14 ) ;
#19 = AXIS2_PLACEMENT_3D ( 'NONE', #122, #65, #125 ) ;
#20 = CARTESIAN_POINT ( 'NONE',  ( 5.586370142149013368E-14, 3.749399456654594755E-33, 16.00000000000000000 ) ) ;
#21 = ADVANCED_FACE ( 'NONE', ( #3 ), #168, .T. ) ;
#22 = EDGE_LOOP ( 'NONE', ( #182 ) ) ;
#23 = APPROVAL_ROLE ( '' ) ;
#24 = VERTEX_POINT ( 'NONE', #76 ) ;
#25 = AXIS2_PLACEMENT_3D ( 'NONE', #52, #26, #31 ) ;
#26 = DIRECTION ( 'NONE',  ( 3.491481338843133355E-15, -1.224646799147353207E-16, 1.000000000000000000 ) ) ;
#27 = PRODUCT_DEFINITION ( 'UNKNOWN', '', #110, #181 ) ;
#28 = DIRECTION ( 'NONE',  ( 0.0000000000000000000, 1.000000000000000000, 0.0000000000000000000 ) ) ;
#29 = FACE_OUTER_BOUND ( 'NONE', #58, .T. ) ;
#30 = AXIS2_PLACEMENT_3D ( 'NONE', #104, #53, #80 ) ;
#31 = DIRECTION ( 'NONE',  ( -3.851859888774507614E-31, -1.000000000000000000, -1.084202172485514541E-16 ) ) ;
#32 = EDGE_CURVE ( 'NONE', #109, #109, #124, .T. ) ;
#33 = CC_DESIGN_DATE_AND_TIME_ASSIGNMENT ( #173, #203, ( #27 ) ) ;
#34 = PERSON_AND_ORGANIZATION ( #113, #14 ) ;
#35 = ORIENTED_EDGE ( 'NONE', *, *, #32, .T. ) ;
#36 = COORDINATED_UNIVERSAL_TIME_OFFSET ( 1, 0, .AHEAD. ) ;
#37 = PERSON_AND_ORGANIZATION ( #113, #14 ) ;
#38 = CARTESIAN_POINT ( 'NONE',  ( 1.326762908760390423E-13, -4.653657836759941941E-15, 38.00000000000000000 ) ) ;
#39 = DIRECTION ( 'NONE',  ( 0.0000000000000000000, 1.000000000000000000, 0.0000000000000000000 ) ) ;
#40 = CARTESIAN_POINT ( 'NONE',  ( 5.586370142149013368E-14, 0.4999999999999953371, 16.00000000000000000 ) ) ;
#41 = ADVANCED_BREP_SHAPE_REPRESENTATION ( '55603', ( #131, #127, #178 ), #154 ) ;
#42 = CC_DESIGN_PERSON_AND_ORGANIZATION_ASSIGNMENT ( #100, #86, ( #27 ) ) ;
#43 = DATE_AND_TIME ( #187, #81 ) ;
#44 = CARTESIAN_POINT ( 'NONE',  ( 0.0000000000000000000, 0.0000000000000000000, 0.0000000000000000000 ) ) ;
#45 = PLANE ( 'NONE',  #67 ) ;
#46 = CALENDAR_DATE ( 2021, 6, 10 ) ;
#47 = PERSON_AND_ORGANIZATION ( #113, #14 ) ;
#48 = FACE_OUTER_BOUND ( 'NONE', #135, .T. ) ;
#49 = SECURITY_CLASSIFICATION_LEVEL ( 'unclassified' ) ;
#50 = DIRECTION ( 'NONE',  ( 4.275831445896958607E-31, 1.000000000000000000, 1.224646799147353207E-16 ) ) ;
#51 = CARTESIAN_POINT ( 'NONE',  ( 1.326762908760390423E-13, 0.2999999999999953815, 38.00000000000000000 ) ) ;
#52 = CARTESIAN_POINT ( 'NONE',  ( 8.140522433039134314E-16, -2.855310904887097124E-17, 0.2331538290775002076 ) ) ;
#53 = DIRECTION ( 'NONE',  ( -3.491481338843133355E-15, 1.224646799147353207E-16, -1.000000000000000000 ) ) ;
#54 = CIRCLE ( 'NONE', #128, 0.3000000000000000444 ) ;
#55 = ORIENTED_EDGE ( 'NONE', *, *, #94, .F. ) ;
#56 = APPROVAL_DATE_TIME ( #169, #155 ) ;
#57 = AXIS2_PLACEMENT_3D ( 'NONE', #106, #162, #50 ) ;
#58 = EDGE_LOOP ( 'NONE', ( #55 ) ) ;
#59 = FACE_OUTER_BOUND ( 'NONE', #150, .T. ) ;
#60 = APPLICATION_PROTOCOL_DEFINITION ( 'international standard', 'config_control_design', 1994, #198 ) ;
#61 = CARTESIAN_POINT ( 'NONE',  ( 5.586370142149013368E-14, -1.959434878635765131E-15, 16.00000000000000000 ) ) ;
#62 = APPROVAL_PERSON_ORGANIZATION ( #119, #7, #183 ) ;
#63 = FACE_OUTER_BOUND ( 'NONE', #22, .T. ) ;
#64 = DIRECTION ( 'NONE',  ( -3.491481338843133355E-15, 1.224646799147353207E-16, -1.000000000000000000 ) ) ;
#65 = DIRECTION ( 'NONE',  ( -3.491481338843133355E-15, 1.224646799147353207E-16, -1.000000000000000000 ) ) ;
#66 = EDGE_CURVE ( 'NONE', #24, #24, #68, .T. ) ;
#67 = AXIS2_PLACEMENT_3D ( 'NONE', #158, #79, #161 ) ;
#68 = CIRCLE ( 'NONE', #190, 0.4999999999999972800 ) ;
#69 = DIRECTION ( 'NONE',  ( 3.491481338843133355E-15, -1.224646799147353207E-16, 1.000000000000000000 ) ) ;
#70 = PERSON_AND_ORGANIZATION ( #113, #14 ) ;
#71 = ORIENTED_EDGE ( 'NONE', *, *, #139, .T. ) ;
#72 = APPROVAL_DATE_TIME ( #43, #7 ) ;
#73 = ADVANCED_FACE ( 'NONE', ( #59 ), #45, .F. ) ;
#74 = APPROVAL_DATE_TIME ( #17, #129 ) ;
#75 = PERSON_AND_ORGANIZATION_ROLE ( 'design_supplier' ) ;
#76 = CARTESIAN_POINT ( 'NONE',  ( 5.586370142149013368E-14, 0.4999999999999953371, 16.00000000000000000 ) ) ;
#77 =( NAMED_UNIT ( * ) PLANE_ANGLE_UNIT ( ) SI_UNIT ( $, .RADIAN. ) );
#78 = CARTESIAN_POINT ( 'NONE',  ( 1.319779946082704535E-13, 0.4999999999999953371, 37.79999999999999716 ) ) ;
#79 = DIRECTION ( 'NONE',  ( 3.491481338843133355E-15, -1.224646799147353207E-16, 1.000000000000000000 ) ) ;
#80 = DIRECTION ( 'NONE',  ( 4.275831445896958607E-31, 1.000000000000000000, 1.224646799147353207E-16 ) ) ;
#81 = LOCAL_TIME ( 13, 19, 49.00000000000000000, #189 ) ;
#82 = ORIENTED_EDGE ( 'NONE', *, *, #66, .F. ) ;
#83 = CALENDAR_DATE ( 2021, 6, 10 ) ;
#84 = CC_DESIGN_PERSON_AND_ORGANIZATION_ASSIGNMENT ( #47, #105, ( #137 ) ) ;
#85 = EDGE_LOOP ( 'NONE', ( #35 ) ) ;
#86 = PERSON_AND_ORGANIZATION_ROLE ( 'creator' ) ;
#87 = PERSON_AND_ORGANIZATION_ROLE ( 'creator' ) ;
#88 = CARTESIAN_POINT ( 'NONE',  ( 8.140522433039136287E-16, 0.4999999999999953371, 0.2331538290775002631 ) ) ;
#89 = LOCAL_TIME ( 13, 19, 49.00000000000000000, #171 ) ;
#90 = CYLINDRICAL_SURFACE ( 'NONE', #92, 0.4999999999999987232 ) ;
#91 = FACE_OUTER_BOUND ( 'NONE', #138, .T. ) ;
#92 = AXIS2_PLACEMENT_3D ( 'NONE', #144, #10, #108 ) ;
#93 = AXIS2_PLACEMENT_3D ( 'NONE', #174, #64, #196 ) ;
#94 = EDGE_CURVE ( 'NONE', #142, #142, #147, .T. ) ;
#95 = CONICAL_SURFACE ( 'NONE', #25, 0.4999999999999953371, 1.134464013796309123 ) ;
#96 = ADVANCED_FACE ( 'NONE', ( #48, #91 ), #8, .T. ) ;
#97 = ORIENTED_EDGE ( 'NONE', *, *, #32, .F. ) ;
#98 = MECHANICAL_CONTEXT ( 'NONE', #198, 'mechanical' ) ;
#99 = EDGE_LOOP ( 'NONE', ( #82 ) ) ;
#100 = PERSON_AND_ORGANIZATION ( #113, #14 ) ;
#101 = APPROVAL_STATUS ( 'not_yet_approved' ) ;
#102 = APPLICATION_CONTEXT ( 'configuration controlled 3d designs of mechanical parts and assemblies' ) ;
#103 = CALENDAR_DATE ( 2021, 6, 10 ) ;
#104 = CARTESIAN_POINT ( 'NONE',  ( 1.326762908760390423E-13, 2.249639673992716963E-33, 38.00000000000000000 ) ) ;
#105 = PERSON_AND_ORGANIZATION_ROLE ( 'classification_officer' ) ;
#106 = CARTESIAN_POINT ( 'NONE',  ( 0.0000000000000000000, 0.0000000000000000000, 0.0000000000000000000 ) ) ;
#107 = ADVANCED_FACE ( 'NONE', ( #143, #63 ), #90, .T. ) ;
#108 = DIRECTION ( 'NONE',  ( 4.275831445896958607E-31, 1.000000000000000000, 1.224646799147353207E-16 ) ) ;
#109 = VERTEX_POINT ( 'NONE', #88 ) ;
#110 = PRODUCT_DEFINITION_FORMATION_WITH_SPECIFIED_SOURCE ( 'ANY', '', #191, .NOT_KNOWN. ) ;
#111 = AXIS2_PLACEMENT_3D ( 'NONE', #118, #132, #186 ) ;
#112 = CC_DESIGN_APPROVAL ( #129, ( #137 ) ) ;
#113 = PERSON ( 'UNSPECIFIED', 'UNSPECIFIED', 'UNSPECIFIED', ('UNSPECIFIED'), ('UNSPECIFIED'), ('UNSPECIFIED') ) ;
#114 = EDGE_LOOP ( 'NONE', ( #156 ) ) ;
#115 = PERSON_AND_ORGANIZATION_ROLE ( 'design_owner' ) ;
#116 = LOCAL_TIME ( 13, 19, 49.00000000000000000, #36 ) ;
#117 = ORIENTED_EDGE ( 'NONE', *, *, #197, .F. ) ;
#118 = CARTESIAN_POINT ( 'NONE',  ( 8.140522433039134314E-16, -2.855310904887097124E-17, 0.2331538290775002076 ) ) ;
#119 = PERSON_AND_ORGANIZATION ( #113, #14 ) ;
#120 = DIRECTION ( 'NONE',  ( -4.275831445896958607E-31, -1.000000000000000000, -1.224646799147353207E-16 ) ) ;
#121 = AXIS2_PLACEMENT_3D ( 'NONE', #20, #69, #120 ) ;
#122 = CARTESIAN_POINT ( 'NONE',  ( 5.586370142149013368E-14, -1.959434878635765131E-15, 16.00000000000000000 ) ) ;
#123 =( NAMED_UNIT ( * ) SI_UNIT ( $, .STERADIAN. ) SOLID_ANGLE_UNIT ( ) );
#124 = CIRCLE ( 'NONE', #111, 0.4999999999999953371 ) ;
#125 = DIRECTION ( 'NONE',  ( 0.0000000000000000000, 1.000000000000000000, 0.0000000000000000000 ) ) ;
#126 = PLANE ( 'NONE',  #30 ) ;
#127 = MANIFOLD_SOLID_BREP ( 'Corps-Déplacer/Copier1[2]', #163 ) ;
#128 = AXIS2_PLACEMENT_3D ( 'NONE', #193, #194, #39 ) ;
#129 = APPROVAL ( #151, 'UNSPECIFIED' ) ;
#130 = APPROVAL_PERSON_ORGANIZATION ( #70, #129, #133 ) ;
#131 = MANIFOLD_SOLID_BREP ( 'Corps-Déplacer/Copier1[1]', #5 ) ;
#132 = DIRECTION ( 'NONE',  ( -3.491481338843133355E-15, 1.224646799147353207E-16, -1.000000000000000000 ) ) ;
#133 = APPROVAL_ROLE ( '' ) ;
#134 = PRODUCT_RELATED_PRODUCT_CATEGORY ( 'detail', '', ( #191 ) ) ;
#135 = EDGE_LOOP ( 'NONE', ( #97 ) ) ;
#136 = SHAPE_DEFINITION_REPRESENTATION ( #6, #41 ) ;
#137 = SECURITY_CLASSIFICATION ( '', '', #49 ) ;
#138 = EDGE_LOOP ( 'NONE', ( #16 ) ) ;
#139 = EDGE_CURVE ( 'NONE', #177, #177, #164, .T. ) ;
#140 = ORIENTED_EDGE ( 'NONE', *, *, #139, .F. ) ;
#141 = CC_DESIGN_APPROVAL ( #7, ( #27 ) ) ;
#142 = VERTEX_POINT ( 'NONE', #78 ) ;
#143 = FACE_OUTER_BOUND ( 'NONE', #1, .T. ) ;
#144 = CARTESIAN_POINT ( 'NONE',  ( 0.0000000000000000000, 0.0000000000000000000, 0.0000000000000000000 ) ) ;
#145 = VERTEX_POINT ( 'NONE', #51 ) ;
#146 = CC_DESIGN_PERSON_AND_ORGANIZATION_ASSIGNMENT ( #18, #115, ( #191 ) ) ;
#147 = CIRCLE ( 'NONE', #93, 0.5000000000000000000 ) ;
#148 = EDGE_LOOP ( 'NONE', ( #117 ) ) ;
#149 = CALENDAR_DATE ( 2021, 6, 10 ) ;
#150 = EDGE_LOOP ( 'NONE', ( #71 ) ) ;
#151 = APPROVAL_STATUS ( 'not_yet_approved' ) ;
#152 = DIRECTION ( 'NONE',  ( -3.491481338843133355E-15, 1.224646799147353207E-16, -1.000000000000000000 ) ) ;
#153 = COORDINATED_UNIVERSAL_TIME_OFFSET ( 1, 0, .AHEAD. ) ;
#154 =( GEOMETRIC_REPRESENTATION_CONTEXT ( 3 ) GLOBAL_UNCERTAINTY_ASSIGNED_CONTEXT ( ( #170 ) ) GLOBAL_UNIT_ASSIGNED_CONTEXT ( ( #175, #77, #123 ) ) REPRESENTATION_CONTEXT ( 'NONE', 'WORKASPACE' ) );
#155 = APPROVAL ( #172, 'UNSPECIFIED' ) ;
#156 = ORIENTED_EDGE ( 'NONE', *, *, #197, .T. ) ;
#157 = DATE_TIME_ROLE ( 'classification_date' ) ;
#158 = CARTESIAN_POINT ( 'NONE',  ( 5.586370142149013368E-14, 3.749399456654594755E-33, 16.00000000000000000 ) ) ;
#159 = LOCAL_TIME ( 13, 19, 49.00000000000000000, #153 ) ;
#160 = ADVANCED_FACE ( 'NONE', ( #29, #11 ), #199, .T. ) ;
#161 = DIRECTION ( 'NONE',  ( -4.275831445896958607E-31, -1.000000000000000000, -1.224646799147353207E-16 ) ) ;
#162 = DIRECTION ( 'NONE',  ( -3.491481338843133355E-15, 1.224646799147353207E-16, -1.000000000000000000 ) ) ;
#163 = CLOSED_SHELL ( 'NONE', ( #185, #96, #21 ) ) ;
#164 = CIRCLE ( 'NONE', #19, 0.4999999999999972800 ) ;
#165 = FACE_OUTER_BOUND ( 'NONE', #85, .T. ) ;
#166 = CC_DESIGN_PERSON_AND_ORGANIZATION_ASSIGNMENT ( #192, #87, ( #110 ) ) ;
#167 = AXIS2_PLACEMENT_3D ( 'NONE', #38, #176, #28 ) ;
#168 = PLANE ( 'NONE',  #121 ) ;
#169 = DATE_AND_TIME ( #46, #159 ) ;
#170 = UNCERTAINTY_MEASURE_WITH_UNIT (LENGTH_MEASURE( 1.000000000000000082E-05 ), #175, 'distance_accuracy_value', 'NONE');
#171 = COORDINATED_UNIVERSAL_TIME_OFFSET ( 1, 0, .AHEAD. ) ;
#172 = APPROVAL_STATUS ( 'not_yet_approved' ) ;
#173 = DATE_AND_TIME ( #103, #116 ) ;
#174 = CARTESIAN_POINT ( 'NONE',  ( 1.319779946082704535E-13, -4.629164900776995227E-15, 37.79999999999999716 ) ) ;
#175 =( LENGTH_UNIT ( ) NAMED_UNIT ( * ) SI_UNIT ( .MILLI., .METRE. ) );
#176 = DIRECTION ( 'NONE',  ( -3.491481338843133355E-15, 1.224646799147353207E-16, -1.000000000000000000 ) ) ;
#177 = VERTEX_POINT ( 'NONE', #40 ) ;
#178 = AXIS2_PLACEMENT_3D ( 'NONE', #44, #188, #4 ) ;
#179 = APPROVAL_PERSON_ORGANIZATION ( #37, #155, #23 ) ;
#180 = ADVANCED_FACE ( 'NONE', ( #195 ), #126, .F. ) ;
#181 = DESIGN_CONTEXT ( 'detailed design', #102, 'design' ) ;
#182 = ORIENTED_EDGE ( 'NONE', *, *, #94, .T. ) ;
#183 = APPROVAL_ROLE ( '' ) ;
#184 = CC_DESIGN_APPROVAL ( #155, ( #110 ) ) ;
#185 = ADVANCED_FACE ( 'NONE', ( #165 ), #95, .T. ) ;
#186 = DIRECTION ( 'NONE',  ( 3.851859888774507614E-31, 1.000000000000000000, 1.084202172485514541E-16 ) ) ;
#187 = CALENDAR_DATE ( 2021, 6, 10 ) ;
#188 = DIRECTION ( 'NONE',  ( 0.0000000000000000000, 0.0000000000000000000, 1.000000000000000000 ) ) ;
#189 = COORDINATED_UNIVERSAL_TIME_OFFSET ( 1, 0, .AHEAD. ) ;
#190 = AXIS2_PLACEMENT_3D ( 'NONE', #61, #152, #201 ) ;
#191 = PRODUCT ( '55603', '55603', '', ( #98 ) ) ;
#192 = PERSON_AND_ORGANIZATION ( #113, #14 ) ;
#193 = CARTESIAN_POINT ( 'NONE',  ( 1.326762908760390423E-13, -4.653657836759941941E-15, 38.00000000000000000 ) ) ;
#194 = DIRECTION ( 'NONE',  ( -3.491481338843133355E-15, 1.224646799147353207E-16, -1.000000000000000000 ) ) ;
#195 = FACE_OUTER_BOUND ( 'NONE', #148, .T. ) ;
#196 = DIRECTION ( 'NONE',  ( 0.0000000000000000000, 1.000000000000000000, 0.0000000000000000000 ) ) ;
#197 = EDGE_CURVE ( 'NONE', #145, #145, #54, .T. ) ;
#198 = APPLICATION_CONTEXT ( 'configuration controlled 3d designs of mechanical parts and assemblies' ) ;
#199 = CONICAL_SURFACE ( 'NONE', #167, 0.3000000000000000444, 0.7853981633974512766 ) ;
#200 = CC_DESIGN_PERSON_AND_ORGANIZATION_ASSIGNMENT ( #34, #75, ( #110 ) ) ;
#201 = DIRECTION ( 'NONE',  ( 0.0000000000000000000, 1.000000000000000000, 0.0000000000000000000 ) ) ;
#202 = COORDINATED_UNIVERSAL_TIME_OFFSET ( 1, 0, .AHEAD. ) ;
#203 = DATE_TIME_ROLE ( 'creation_date' ) ;
ENDSEC;
END-ISO-10303-21;
