ISO-10303-21;
HEADER;
FILE_DESCRIPTION (( 'STEP AP203' ),
    '1' );
FILE_NAME ('55601.step',
    '2021-10-06T11:19:48',
    ( '' ),
    ( '' ),
    'SwSTEP 2.0',
    'SolidWorks 2019',
    '' );
FILE_SCHEMA (( 'CONFIG_CONTROL_DESIGN' ));
ENDSEC;

DATA;
#1 = EDGE_LOOP ( 'NONE', ( #193 ) ) ;
#2 = VERTEX_POINT ( 'NONE', #33 ) ;
#3 = CYLINDRICAL_SURFACE ( 'NONE', #64, 0.4749999999999963696 ) ;
#4 = AXIS2_PLACEMENT_3D ( 'NONE', #146, #114, #203 ) ;
#5 = CALENDAR_DATE ( 2021, 6, 10 ) ;
#6 = SECURITY_CLASSIFICATION ( '', '', #167 ) ;
#7 = DIRECTION ( 'NONE',  ( 4.054589356604746978E-31, 1.000000000000000000, 1.141265444721594851E-16 ) ) ;
#8 = CALENDAR_DATE ( 2021, 6, 10 ) ;
#9 = EDGE_CURVE ( 'NONE', #16, #16, #60, .T. ) ;
#10 = ORIENTED_EDGE ( 'NONE', *, *, #27, .F. ) ;
#11 = PERSON_AND_ORGANIZATION_ROLE ( 'creator' ) ;
#12 = LOCAL_TIME ( 13, 19, 48.00000000000000000, #97 ) ;
#13 = DESIGN_CONTEXT ( 'detailed design', #57, 'design' ) ;
#14 = ADVANCED_FACE ( 'NONE', ( #75 ), #156, .T. ) ;
#15 = CONICAL_SURFACE ( 'NONE', #150, 0.3750000000000000000, 0.7853981633974339571 ) ;
#16 = VERTEX_POINT ( 'NONE', #48 ) ;
#17 = VERTEX_POINT ( 'NONE', #99 ) ;
#18 = DIRECTION ( 'NONE',  ( 0.0000000000000000000, 1.000000000000000000, 0.0000000000000000000 ) ) ;
#19 = ORGANIZATION ( 'UNSPECIFIED', 'UNSPECIFIED', '' ) ;
#20 =( LENGTH_UNIT ( ) NAMED_UNIT ( * ) SI_UNIT ( .MILLI., .METRE. ) );
#21 = ORIENTED_EDGE ( 'NONE', *, *, #182, .T. ) ;
#22 = EDGE_LOOP ( 'NONE', ( #151 ) ) ;
#23 = PLANE ( 'NONE',  #197 ) ;
#24 = DIRECTION ( 'NONE',  ( -3.491481338843133355E-15, 1.224646799147353207E-16, -1.000000000000000000 ) ) ;
#25 = AXIS2_PLACEMENT_3D ( 'NONE', #49, #159, #170 ) ;
#26 = DATE_AND_TIME ( #121, #127 ) ;
#27 = EDGE_CURVE ( 'NONE', #2, #2, #169, .T. ) ;
#28 = AXIS2_PLACEMENT_3D ( 'NONE', #143, #24, #89 ) ;
#29 = AXIS2_PLACEMENT_3D ( 'NONE', #161, #81, #192 ) ;
#30 =( NAMED_UNIT ( * ) PLANE_ANGLE_UNIT ( ) SI_UNIT ( $, .RADIAN. ) );
#31 = VERTEX_POINT ( 'NONE', #128 ) ;
#32 = FACE_OUTER_BOUND ( 'NONE', #22, .T. ) ;
#33 = CARTESIAN_POINT ( 'NONE',  ( 5.586370142149013368E-14, 0.4749999999999953149, 16.00000000000000000 ) ) ;
#34 = DIRECTION ( 'NONE',  ( -3.491481338843133355E-15, 1.224646799147353207E-16, -1.000000000000000000 ) ) ;
#35 = LOCAL_TIME ( 13, 19, 48.00000000000000000, #148 ) ;
#36 = APPROVAL_DATE_TIME ( #174, #153 ) ;
#37 = APPROVAL_ROLE ( '' ) ;
#38 = DIRECTION ( 'NONE',  ( -3.491481338843133355E-15, 1.224646799147353207E-16, -1.000000000000000000 ) ) ;
#39 = FACE_OUTER_BOUND ( 'NONE', #118, .T. ) ;
#40 = AXIS2_PLACEMENT_3D ( 'NONE', #140, #122, #160 ) ;
#41 = DATE_TIME_ROLE ( 'classification_date' ) ;
#42 = DIRECTION ( 'NONE',  ( -4.275831445896958607E-31, -1.000000000000000000, -1.224646799147353207E-16 ) ) ;
#43 = ADVANCED_BREP_SHAPE_REPRESENTATION ( '55601', ( #73, #79, #29 ), #191 ) ;
#44 = APPROVAL ( #117, 'UNSPECIFIED' ) ;
#45 = UNCERTAINTY_MEASURE_WITH_UNIT (LENGTH_MEASURE( 1.000000000000000082E-05 ), #20, 'distance_accuracy_value', 'NONE');
#46 = APPROVAL_PERSON_ORGANIZATION ( #102, #44, #202 ) ;
#47 = ADVANCED_FACE ( 'NONE', ( #32, #194 ), #3, .T. ) ;
#48 = CARTESIAN_POINT ( 'NONE',  ( 5.586370142149013368E-14, 0.4749999999999953149, 16.00000000000000000 ) ) ;
#49 = CARTESIAN_POINT ( 'NONE',  ( 1.326762908760390423E-13, -4.653657836759941941E-15, 38.00000000000000000 ) ) ;
#50 = DIRECTION ( 'NONE',  ( -4.054589356604746978E-31, -1.000000000000000000, -1.141265444721594851E-16 ) ) ;
#51 = PLANE ( 'NONE',  #136 ) ;
#52 = COORDINATED_UNIVERSAL_TIME_OFFSET ( 1, 0, .AHEAD. ) ;
#53 = CARTESIAN_POINT ( 'NONE',  ( 7.733496311387173654E-16, -2.712545359642741097E-17, 0.2214961376236250779 ) ) ;
#54 = CARTESIAN_POINT ( 'NONE',  ( 1.326762908760390423E-13, -4.653657836759941941E-15, 38.00000000000000000 ) ) ;
#55 = DIRECTION ( 'NONE',  ( 3.491481338843133355E-15, -1.224646799147353207E-16, 1.000000000000000000 ) ) ;
#56 = AXIS2_PLACEMENT_3D ( 'NONE', #53, #120, #7 ) ;
#57 = APPLICATION_CONTEXT ( 'configuration controlled 3d designs of mechanical parts and assemblies' ) ;
#58 = EDGE_CURVE ( 'NONE', #68, #68, #155, .T. ) ;
#59 = APPROVAL_STATUS ( 'not_yet_approved' ) ;
#60 = CIRCLE ( 'NONE', #40, 0.4749999999999973133 ) ;
#61 = ADVANCED_FACE ( 'NONE', ( #178, #158 ), #15, .T. ) ;
#62 = PRODUCT ( '55601', '55601', '', ( #83 ) ) ;
#63 = APPLICATION_PROTOCOL_DEFINITION ( 'international standard', 'config_control_design', 1994, #57 ) ;
#64 = AXIS2_PLACEMENT_3D ( 'NONE', #69, #149, #98 ) ;
#65 = PERSON_AND_ORGANIZATION ( #111, #19 ) ;
#66 = ORIENTED_EDGE ( 'NONE', *, *, #200, .T. ) ;
#67 = PERSON_AND_ORGANIZATION ( #111, #19 ) ;
#68 = VERTEX_POINT ( 'NONE', #96 ) ;
#69 = CARTESIAN_POINT ( 'NONE',  ( 0.0000000000000000000, 0.0000000000000000000, 0.0000000000000000000 ) ) ;
#70 = ADVANCED_FACE ( 'NONE', ( #105 ), #23, .F. ) ;
#71 = PERSON_AND_ORGANIZATION_ROLE ( 'design_owner' ) ;
#72 = DIRECTION ( 'NONE',  ( 3.491481338843133355E-15, -1.224646799147353207E-16, 1.000000000000000000 ) ) ;
#73 = MANIFOLD_SOLID_BREP ( 'Corps-Déplacer/Copier1[1]', #80 ) ;
#74 = SHAPE_DEFINITION_REPRESENTATION ( #78, #43 ) ;
#75 = FACE_OUTER_BOUND ( 'NONE', #1, .T. ) ;
#76 = PERSON_AND_ORGANIZATION ( #111, #19 ) ;
#77 = LOCAL_TIME ( 13, 19, 48.00000000000000000, #52 ) ;
#78 = PRODUCT_DEFINITION_SHAPE ( 'NONE', 'NONE',  #157 ) ;
#79 = MANIFOLD_SOLID_BREP ( 'Corps-Déplacer/Copier1[2]', #185 ) ;
#80 = CLOSED_SHELL ( 'NONE', ( #70, #87, #61, #103 ) ) ;
#81 = DIRECTION ( 'NONE',  ( 0.0000000000000000000, 0.0000000000000000000, 1.000000000000000000 ) ) ;
#82 = DIRECTION ( 'NONE',  ( 3.491481338843133355E-15, -1.224646799147353207E-16, 1.000000000000000000 ) ) ;
#83 = MECHANICAL_CONTEXT ( 'NONE', #183, 'mechanical' ) ;
#84 = CARTESIAN_POINT ( 'NONE',  ( 5.586370142149013368E-14, 3.561929483821862554E-33, 16.00000000000000000 ) ) ;
#85 = APPROVAL_DATE_TIME ( #113, #44 ) ;
#86 = CARTESIAN_POINT ( 'NONE',  ( 7.733496311387173654E-16, -2.712545359642741097E-17, 0.2214961376236250779 ) ) ;
#87 = ADVANCED_FACE ( 'NONE', ( #39, #106 ), #130, .T. ) ;
#88 = EDGE_LOOP ( 'NONE', ( #133 ) ) ;
#89 = DIRECTION ( 'NONE',  ( 4.275831445896957731E-31, 1.000000000000000000, 1.224646799147353207E-16 ) ) ;
#90 = APPROVAL_DATE_TIME ( #139, #186 ) ;
#91 = CC_DESIGN_PERSON_AND_ORGANIZATION_ASSIGNMENT ( #65, #132, ( #157 ) ) ;
#92 = PERSON_AND_ORGANIZATION_ROLE ( 'classification_officer' ) ;
#93 = CC_DESIGN_APPROVAL ( #153, ( #154 ) ) ;
#94 = LOCAL_TIME ( 13, 19, 48.00000000000000000, #137 ) ;
#95 = CC_DESIGN_DATE_AND_TIME_ASSIGNMENT ( #26, #41, ( #6 ) ) ;
#96 = CARTESIAN_POINT ( 'NONE',  ( 7.733496311387175627E-16, 0.4749999999999953149, 0.2214961376236251334 ) ) ;
#97 = COORDINATED_UNIVERSAL_TIME_OFFSET ( 1, 0, .AHEAD. ) ;
#98 = DIRECTION ( 'NONE',  ( 4.275831445896958607E-31, 1.000000000000000000, 1.224646799147353207E-16 ) ) ;
#99 = CARTESIAN_POINT ( 'NONE',  ( 1.326762908760390423E-13, 0.3749999999999953371, 38.00000000000000000 ) ) ;
#100 = DIRECTION ( 'NONE',  ( 4.275831445896958607E-31, 1.000000000000000000, 1.224646799147353207E-16 ) ) ;
#101 = AXIS2_PLACEMENT_3D ( 'NONE', #86, #82, #50 ) ;
#102 = PERSON_AND_ORGANIZATION ( #111, #19 ) ;
#103 = ADVANCED_FACE ( 'NONE', ( #188 ), #51, .F. ) ;
#104 = ORIENTED_EDGE ( 'NONE', *, *, #182, .F. ) ;
#105 = FACE_OUTER_BOUND ( 'NONE', #135, .T. ) ;
#106 = FACE_OUTER_BOUND ( 'NONE', #144, .T. ) ;
#107 = PRODUCT_RELATED_PRODUCT_CATEGORY ( 'detail', '', ( #62 ) ) ;
#108 = CARTESIAN_POINT ( 'NONE',  ( 5.586370142149013368E-14, 3.561929483821862554E-33, 16.00000000000000000 ) ) ;
#109 = APPROVAL_PERSON_ORGANIZATION ( #129, #153, #37 ) ;
#110 = APPROVAL_PERSON_ORGANIZATION ( #184, #186, #152 ) ;
#111 = PERSON ( 'UNSPECIFIED', 'UNSPECIFIED', 'UNSPECIFIED', ('UNSPECIFIED'), ('UNSPECIFIED'), ('UNSPECIFIED') ) ;
#112 = CC_DESIGN_PERSON_AND_ORGANIZATION_ASSIGNMENT ( #76, #92, ( #6 ) ) ;
#113 = DATE_AND_TIME ( #141, #12 ) ;
#114 = DIRECTION ( 'NONE',  ( -3.491481338843133355E-15, 1.224646799147353207E-16, -1.000000000000000000 ) ) ;
#115 = DIRECTION ( 'NONE',  ( -3.491481338843133355E-15, 1.224646799147353207E-16, -1.000000000000000000 ) ) ;
#116 = EDGE_LOOP ( 'NONE', ( #66 ) ) ;
#117 = APPROVAL_STATUS ( 'not_yet_approved' ) ;
#118 = EDGE_LOOP ( 'NONE', ( #138 ) ) ;
#119 = DATE_AND_TIME ( #189, #35 ) ;
#120 = DIRECTION ( 'NONE',  ( -3.491481338843133355E-15, 1.224646799147353207E-16, -1.000000000000000000 ) ) ;
#121 = CALENDAR_DATE ( 2021, 6, 10 ) ;
#122 = DIRECTION ( 'NONE',  ( -3.491481338843133355E-15, 1.224646799147353207E-16, -1.000000000000000000 ) ) ;
#123 = CARTESIAN_POINT ( 'NONE',  ( 1.323271427421547605E-13, -4.641411368768468584E-15, 37.89999999999999858 ) ) ;
#124 = PERSON_AND_ORGANIZATION_ROLE ( 'design_supplier' ) ;
#125 = COORDINATED_UNIVERSAL_TIME_OFFSET ( 1, 0, .AHEAD. ) ;
#126 = CC_DESIGN_APPROVAL ( #44, ( #157 ) ) ;
#127 = LOCAL_TIME ( 13, 19, 48.00000000000000000, #125 ) ;
#128 = CARTESIAN_POINT ( 'NONE',  ( 1.323271427421547605E-13, 0.4749999999999953149, 37.89999999999999858 ) ) ;
#129 = PERSON_AND_ORGANIZATION ( #111, #19 ) ;
#130 = CYLINDRICAL_SURFACE ( 'NONE', #28, 0.4749999999999986455 ) ;
#131 = ADVANCED_FACE ( 'NONE', ( #195 ), #181, .T. ) ;
#132 = PERSON_AND_ORGANIZATION_ROLE ( 'creator' ) ;
#133 = ORIENTED_EDGE ( 'NONE', *, *, #200, .F. ) ;
#134 = APPLICATION_PROTOCOL_DEFINITION ( 'international standard', 'config_control_design', 1994, #183 ) ;
#135 = EDGE_LOOP ( 'NONE', ( #190 ) ) ;
#136 = AXIS2_PLACEMENT_3D ( 'NONE', #173, #34, #100 ) ;
#137 = COORDINATED_UNIVERSAL_TIME_OFFSET ( 1, 0, .AHEAD. ) ;
#138 = ORIENTED_EDGE ( 'NONE', *, *, #9, .F. ) ;
#139 = DATE_AND_TIME ( #8, #94 ) ;
#140 = CARTESIAN_POINT ( 'NONE',  ( 5.586370142149013368E-14, -1.959434878635765131E-15, 16.00000000000000000 ) ) ;
#141 = CALENDAR_DATE ( 2021, 6, 10 ) ;
#142 = CC_DESIGN_PERSON_AND_ORGANIZATION_ASSIGNMENT ( #67, #71, ( #62 ) ) ;
#143 = CARTESIAN_POINT ( 'NONE',  ( 0.0000000000000000000, 0.0000000000000000000, 0.0000000000000000000 ) ) ;
#144 = EDGE_LOOP ( 'NONE', ( #21 ) ) ;
#145 = PERSON_AND_ORGANIZATION ( #111, #19 ) ;
#146 = CARTESIAN_POINT ( 'NONE',  ( 5.586370142149013368E-14, -1.959434878635765131E-15, 16.00000000000000000 ) ) ;
#147 = CC_DESIGN_DATE_AND_TIME_ASSIGNMENT ( #119, #163, ( #157 ) ) ;
#148 = COORDINATED_UNIVERSAL_TIME_OFFSET ( 1, 0, .AHEAD. ) ;
#149 = DIRECTION ( 'NONE',  ( -3.491481338843133355E-15, 1.224646799147353207E-16, -1.000000000000000000 ) ) ;
#150 = AXIS2_PLACEMENT_3D ( 'NONE', #54, #38, #18 ) ;
#151 = ORIENTED_EDGE ( 'NONE', *, *, #58, .F. ) ;
#152 = APPROVAL_ROLE ( '' ) ;
#153 = APPROVAL ( #187, 'UNSPECIFIED' ) ;
#154 = PRODUCT_DEFINITION_FORMATION_WITH_SPECIFIED_SOURCE ( 'ANY', '', #62, .NOT_KNOWN. ) ;
#155 = CIRCLE ( 'NONE', #56, 0.4749999999999953704 ) ;
#156 = CONICAL_SURFACE ( 'NONE', #101, 0.4749999999999953704, 1.134464013796309123 ) ;
#157 = PRODUCT_DEFINITION ( 'UNKNOWN', '', #154, #13 ) ;
#158 = FACE_BOUND ( 'NONE', #116, .T. ) ;
#159 = DIRECTION ( 'NONE',  ( -3.491481338843133355E-15, 1.224646799147353207E-16, -1.000000000000000000 ) ) ;
#160 = DIRECTION ( 'NONE',  ( 0.0000000000000000000, 1.000000000000000000, 0.0000000000000000000 ) ) ;
#161 = CARTESIAN_POINT ( 'NONE',  ( 0.0000000000000000000, 0.0000000000000000000, 0.0000000000000000000 ) ) ;
#162 = ORIENTED_EDGE ( 'NONE', *, *, #27, .T. ) ;
#163 = DATE_TIME_ROLE ( 'creation_date' ) ;
#164 = EDGE_LOOP ( 'NONE', ( #10 ) ) ;
#165 = CC_DESIGN_SECURITY_CLASSIFICATION ( #6, ( #154 ) ) ;
#166 = CC_DESIGN_APPROVAL ( #186, ( #6 ) ) ;
#167 = SECURITY_CLASSIFICATION_LEVEL ( 'unclassified' ) ;
#168 = CIRCLE ( 'NONE', #199, 0.4749999999999999778 ) ;
#169 = CIRCLE ( 'NONE', #4, 0.4749999999999973133 ) ;
#170 = DIRECTION ( 'NONE',  ( 0.0000000000000000000, 1.000000000000000000, 0.0000000000000000000 ) ) ;
#171 = EDGE_LOOP ( 'NONE', ( #104 ) ) ;
#172 = DIRECTION ( 'NONE',  ( 0.0000000000000000000, 1.000000000000000000, 0.0000000000000000000 ) ) ;
#173 = CARTESIAN_POINT ( 'NONE',  ( 1.326762908760390423E-13, 2.812049592490913223E-33, 38.00000000000000000 ) ) ;
#174 = DATE_AND_TIME ( #5, #77 ) ;
#175 = AXIS2_PLACEMENT_3D ( 'NONE', #108, #55, #42 ) ;
#176 = EDGE_LOOP ( 'NONE', ( #162 ) ) ;
#177 = CC_DESIGN_PERSON_AND_ORGANIZATION_ASSIGNMENT ( #179, #124, ( #154 ) ) ;
#178 = FACE_OUTER_BOUND ( 'NONE', #171, .T. ) ;
#179 = PERSON_AND_ORGANIZATION ( #111, #19 ) ;
#180 = DIRECTION ( 'NONE',  ( -4.275831445896958607E-31, -1.000000000000000000, -1.224646799147353207E-16 ) ) ;
#181 = PLANE ( 'NONE',  #175 ) ;
#182 = EDGE_CURVE ( 'NONE', #31, #31, #168, .T. ) ;
#183 = APPLICATION_CONTEXT ( 'configuration controlled 3d designs of mechanical parts and assemblies' ) ;
#184 = PERSON_AND_ORGANIZATION ( #111, #19 ) ;
#185 = CLOSED_SHELL ( 'NONE', ( #14, #47, #131 ) ) ;
#186 = APPROVAL ( #59, 'UNSPECIFIED' ) ;
#187 = APPROVAL_STATUS ( 'not_yet_approved' ) ;
#188 = FACE_OUTER_BOUND ( 'NONE', #88, .T. ) ;
#189 = CALENDAR_DATE ( 2021, 6, 10 ) ;
#190 = ORIENTED_EDGE ( 'NONE', *, *, #9, .T. ) ;
#191 =( GEOMETRIC_REPRESENTATION_CONTEXT ( 3 ) GLOBAL_UNCERTAINTY_ASSIGNED_CONTEXT ( ( #45 ) ) GLOBAL_UNIT_ASSIGNED_CONTEXT ( ( #20, #30, #201 ) ) REPRESENTATION_CONTEXT ( 'NONE', 'WORKASPACE' ) );
#192 = DIRECTION ( 'NONE',  ( 1.000000000000000000, 0.0000000000000000000, 0.0000000000000000000 ) ) ;
#193 = ORIENTED_EDGE ( 'NONE', *, *, #58, .T. ) ;
#194 = FACE_OUTER_BOUND ( 'NONE', #176, .T. ) ;
#195 = FACE_OUTER_BOUND ( 'NONE', #164, .T. ) ;
#196 = CIRCLE ( 'NONE', #25, 0.3750000000000000000 ) ;
#197 = AXIS2_PLACEMENT_3D ( 'NONE', #84, #72, #180 ) ;
#198 = CC_DESIGN_PERSON_AND_ORGANIZATION_ASSIGNMENT ( #145, #11, ( #154 ) ) ;
#199 = AXIS2_PLACEMENT_3D ( 'NONE', #123, #115, #172 ) ;
#200 = EDGE_CURVE ( 'NONE', #17, #17, #196, .T. ) ;
#201 =( NAMED_UNIT ( * ) SI_UNIT ( $, .STERADIAN. ) SOLID_ANGLE_UNIT ( ) );
#202 = APPROVAL_ROLE ( '' ) ;
#203 = DIRECTION ( 'NONE',  ( 0.0000000000000000000, 1.000000000000000000, 0.0000000000000000000 ) ) ;
ENDSEC;
END-ISO-10303-21;
