ISO-10303-21;
HEADER;
FILE_DESCRIPTION (( 'STEP AP203' ),
    '1' );
FILE_NAME ('55599.step',
    '2021-10-06T11:19:47',
    ( '' ),
    ( '' ),
    'SwSTEP 2.0',
    'SolidWorks 2019',
    '' );
FILE_SCHEMA (( 'CONFIG_CONTROL_DESIGN' ));
ENDSEC;

DATA;
#1 = DATE_TIME_ROLE ( 'classification_date' ) ;
#2 = CALENDAR_DATE ( 2021, 6, 10 ) ;
#3 = AXIS2_PLACEMENT_3D ( 'NONE', #194, #60, #123 ) ;
#4 = EDGE_CURVE ( 'NONE', #111, #111, #24, .T. ) ;
#5 = APPROVAL_ROLE ( '' ) ;
#6 = EDGE_LOOP ( 'NONE', ( #155 ) ) ;
#7 = EDGE_LOOP ( 'NONE', ( #39 ) ) ;
#8 = LOCAL_TIME ( 13, 19, 47.00000000000000000, #53 ) ;
#9 = EDGE_LOOP ( 'NONE', ( #180 ) ) ;
#10 = DIRECTION ( 'NONE',  ( 0.0000000000000000000, 1.000000000000000000, 0.0000000000000000000 ) ) ;
#11 = APPLICATION_CONTEXT ( 'configuration controlled 3d designs of mechanical parts and assemblies' ) ;
#12 = DIRECTION ( 'NONE',  ( -3.491481338843133355E-15, 1.224646799147353207E-16, -1.000000000000000000 ) ) ;
#13 = AXIS2_PLACEMENT_3D ( 'NONE', #200, #125, #69 ) ;
#14 = PERSON ( 'UNSPECIFIED', 'UNSPECIFIED', 'UNSPECIFIED', ('UNSPECIFIED'), ('UNSPECIFIED'), ('UNSPECIFIED') ) ;
#15 = CC_DESIGN_PERSON_AND_ORGANIZATION_ASSIGNMENT ( #177, #85, ( #34 ) ) ;
#16 = DIRECTION ( 'NONE',  ( -3.491481338843133355E-15, 1.224646799147353207E-16, -1.000000000000000000 ) ) ;
#17 = APPROVAL_PERSON_ORGANIZATION ( #166, #41, #5 ) ;
#18 = VERTEX_POINT ( 'NONE', #186 ) ;
#19 = CC_DESIGN_PERSON_AND_ORGANIZATION_ASSIGNMENT ( #119, #35, ( #161 ) ) ;
#20 = CYLINDRICAL_SURFACE ( 'NONE', #192, 0.4499999999999962919 ) ;
#21 = DATE_TIME_ROLE ( 'creation_date' ) ;
#22 = APPROVAL_DATE_TIME ( #37, #54 ) ;
#23 = PERSON_AND_ORGANIZATION_ROLE ( 'creator' ) ;
#24 = CIRCLE ( 'NONE', #168, 0.4499999999999953482 ) ;
#25 = DATE_AND_TIME ( #56, #42 ) ;
#26 = ORIENTED_EDGE ( 'NONE', *, *, #154, .T. ) ;
#27 = DIRECTION ( 'NONE',  ( -3.491481338843133355E-15, 1.224646799147353207E-16, -1.000000000000000000 ) ) ;
#28 = AXIS2_PLACEMENT_3D ( 'NONE', #50, #68, #45 ) ;
#29 = FACE_OUTER_BOUND ( 'NONE', #179, .T. ) ;
#30 = FACE_OUTER_BOUND ( 'NONE', #9, .T. ) ;
#31 = CONICAL_SURFACE ( 'NONE', #3, 0.4499999999999953482, 1.134464013796309123 ) ;
#32 = DIRECTION ( 'NONE',  ( 0.0000000000000000000, 1.000000000000000000, 0.0000000000000000000 ) ) ;
#33 = AXIS2_PLACEMENT_3D ( 'NONE', #105, #167, #97 ) ;
#34 = SECURITY_CLASSIFICATION ( '', '', #115 ) ;
#35 = PERSON_AND_ORGANIZATION_ROLE ( 'creator' ) ;
#36 = LOCAL_TIME ( 13, 19, 47.00000000000000000, #132 ) ;
#37 = DATE_AND_TIME ( #2, #8 ) ;
#38 = COORDINATED_UNIVERSAL_TIME_OFFSET ( 1, 0, .AHEAD. ) ;
#39 = ORIENTED_EDGE ( 'NONE', *, *, #154, .F. ) ;
#40 = AXIS2_PLACEMENT_3D ( 'NONE', #142, #160, #170 ) ;
#41 = APPROVAL ( #103, 'UNSPECIFIED' ) ;
#42 = LOCAL_TIME ( 13, 19, 47.00000000000000000, #73 ) ;
#43 = CARTESIAN_POINT ( 'NONE',  ( 7.326470189735212994E-16, -2.569779814398384453E-17, 0.2098384461697499481 ) ) ;
#44 = FACE_BOUND ( 'NONE', #190, .T. ) ;
#45 = DIRECTION ( 'NONE',  ( 4.275831445896958607E-31, 1.000000000000000000, 1.224646799147353207E-16 ) ) ;
#46 = FACE_OUTER_BOUND ( 'NONE', #7, .T. ) ;
#47 = CC_DESIGN_PERSON_AND_ORGANIZATION_ASSIGNMENT ( #153, #117, ( #114 ) ) ;
#48 = DESIGN_CONTEXT ( 'detailed design', #61, 'design' ) ;
#49 = AXIS2_PLACEMENT_3D ( 'NONE', #86, #165, #150 ) ;
#50 = CARTESIAN_POINT ( 'NONE',  ( 1.326762908760390423E-13, 2.624579619658180680E-33, 38.00000000000000000 ) ) ;
#51 = VERTEX_POINT ( 'NONE', #113 ) ;
#52 = CC_DESIGN_APPROVAL ( #41, ( #34 ) ) ;
#53 = COORDINATED_UNIVERSAL_TIME_OFFSET ( 1, 0, .AHEAD. ) ;
#54 = APPROVAL ( #188, 'UNSPECIFIED' ) ;
#55 = APPROVAL_DATE_TIME ( #75, #143 ) ;
#56 = CALENDAR_DATE ( 2021, 6, 10 ) ;
#57 = ORIENTED_EDGE ( 'NONE', *, *, #171, .F. ) ;
#58 = AXIS2_PLACEMENT_3D ( 'NONE', #80, #129, #93 ) ;
#59 = PRODUCT_DEFINITION_SHAPE ( 'NONE', 'NONE',  #90 ) ;
#60 = DIRECTION ( 'NONE',  ( 3.491481338843133355E-15, -1.224646799147353207E-16, 1.000000000000000000 ) ) ;
#61 = APPLICATION_CONTEXT ( 'configuration controlled 3d designs of mechanical parts and assemblies' ) ;
#62 = PLANE ( 'NONE',  #40 ) ;
#63 = AXIS2_PLACEMENT_3D ( 'NONE', #109, #12, #32 ) ;
#64 = DIRECTION ( 'NONE',  ( -3.491481338843133355E-15, 1.224646799147353207E-16, -1.000000000000000000 ) ) ;
#65 = PRODUCT_RELATED_PRODUCT_CATEGORY ( 'detail', '', ( #114 ) ) ;
#66 = APPROVAL_PERSON_ORGANIZATION ( #189, #143, #151 ) ;
#67 = DIRECTION ( 'NONE',  ( -3.491481338843133355E-15, 1.224646799147353207E-16, -1.000000000000000000 ) ) ;
#68 = DIRECTION ( 'NONE',  ( -3.491481338843133355E-15, 1.224646799147353207E-16, -1.000000000000000000 ) ) ;
#69 = DIRECTION ( 'NONE',  ( 0.0000000000000000000, 1.000000000000000000, 0.0000000000000000000 ) ) ;
#70 = AXIS2_PLACEMENT_3D ( 'NONE', #145, #16, #199 ) ;
#71 = CC_DESIGN_SECURITY_CLASSIFICATION ( #34, ( #161 ) ) ;
#72 = CALENDAR_DATE ( 2021, 6, 10 ) ;
#73 = COORDINATED_UNIVERSAL_TIME_OFFSET ( 1, 0, .AHEAD. ) ;
#74 = APPROVAL_ROLE ( '' ) ;
#75 = DATE_AND_TIME ( #72, #175 ) ;
#76 = APPLICATION_PROTOCOL_DEFINITION ( 'international standard', 'config_control_design', 1994, #11 ) ;
#77 = DIRECTION ( 'NONE',  ( 4.275831445896959482E-31, 1.000000000000000000, 1.224646799147353207E-16 ) ) ;
#78 = LOCAL_TIME ( 13, 19, 47.00000000000000000, #38 ) ;
#79 = AXIS2_PLACEMENT_3D ( 'NONE', #162, #169, #10 ) ;
#80 = CARTESIAN_POINT ( 'NONE',  ( 5.586370142149013368E-14, 3.374459510989129669E-33, 16.00000000000000000 ) ) ;
#81 = ADVANCED_FACE ( 'NONE', ( #141 ), #31, .T. ) ;
#82 = PLANE ( 'NONE',  #58 ) ;
#83 = FACE_OUTER_BOUND ( 'NONE', #195, .T. ) ;
#84 = CONICAL_SURFACE ( 'NONE', #33, 0.3499999999999999778, 0.7853981633974339571 ) ;
#85 = PERSON_AND_ORGANIZATION_ROLE ( 'classification_officer' ) ;
#86 = CARTESIAN_POINT ( 'NONE',  ( 0.0000000000000000000, 0.0000000000000000000, 0.0000000000000000000 ) ) ;
#87 = MECHANICAL_CONTEXT ( 'NONE', #11, 'mechanical' ) ;
#88 = CC_DESIGN_PERSON_AND_ORGANIZATION_ASSIGNMENT ( #116, #164, ( #161 ) ) ;
#89 = DIRECTION ( 'NONE',  ( 4.279844320860568687E-31, 1.000000000000000000, 1.204669080539461916E-16 ) ) ;
#90 = PRODUCT_DEFINITION ( 'UNKNOWN', '', #161, #48 ) ;
#91 = EDGE_LOOP ( 'NONE', ( #57 ) ) ;
#92 = CARTESIAN_POINT ( 'NONE',  ( 5.586370142149013368E-14, 0.4499999999999953482, 16.00000000000000000 ) ) ;
#93 = DIRECTION ( 'NONE',  ( -4.275831445896958607E-31, -1.000000000000000000, -1.224646799147353207E-16 ) ) ;
#94 = FACE_OUTER_BOUND ( 'NONE', #191, .T. ) ;
#95 = UNCERTAINTY_MEASURE_WITH_UNIT (LENGTH_MEASURE( 1.000000000000000082E-05 ), #144, 'distance_accuracy_value', 'NONE');
#96 = CYLINDRICAL_SURFACE ( 'NONE', #197, 0.4499999999999986233 ) ;
#97 = DIRECTION ( 'NONE',  ( 0.0000000000000000000, 1.000000000000000000, 0.0000000000000000000 ) ) ;
#98 = CC_DESIGN_DATE_AND_TIME_ASSIGNMENT ( #102, #1, ( #34 ) ) ;
#99 = PERSON_AND_ORGANIZATION ( #14, #118 ) ;
#100 = CIRCLE ( 'NONE', #13, 0.3499999999999999778 ) ;
#101 = DATE_AND_TIME ( #136, #36 ) ;
#102 = DATE_AND_TIME ( #149, #78 ) ;
#103 = APPROVAL_STATUS ( 'not_yet_approved' ) ;
#104 = EDGE_LOOP ( 'NONE', ( #140 ) ) ;
#105 = CARTESIAN_POINT ( 'NONE',  ( 1.326762908760390423E-13, -4.653657836759941941E-15, 38.00000000000000000 ) ) ;
#106 = CLOSED_SHELL ( 'NONE', ( #81, #173, #198 ) ) ;
#107 = CC_DESIGN_APPROVAL ( #143, ( #161 ) ) ;
#108 = CARTESIAN_POINT ( 'NONE',  ( 7.326470189735214967E-16, 0.4499999999999953482, 0.2098384461697500036 ) ) ;
#109 = CARTESIAN_POINT ( 'NONE',  ( 1.323271427421547605E-13, -4.641411368768468584E-15, 37.89999999999999858 ) ) ;
#110 = CIRCLE ( 'NONE', #79, 0.4499999999999972911 ) ;
#111 = VERTEX_POINT ( 'NONE', #108 ) ;
#112 = CC_DESIGN_APPROVAL ( #54, ( #90 ) ) ;
#113 = CARTESIAN_POINT ( 'NONE',  ( 1.323271427421547605E-13, 0.4499999999999953482, 37.89999999999999858 ) ) ;
#114 = PRODUCT ( '55599', '55599', '', ( #87 ) ) ;
#115 = SECURITY_CLASSIFICATION_LEVEL ( 'unclassified' ) ;
#116 = PERSON_AND_ORGANIZATION ( #14, #118 ) ;
#117 = PERSON_AND_ORGANIZATION_ROLE ( 'design_owner' ) ;
#118 = ORGANIZATION ( 'UNSPECIFIED', 'UNSPECIFIED', '' ) ;
#119 = PERSON_AND_ORGANIZATION ( #14, #118 ) ;
#120 = ORIENTED_EDGE ( 'NONE', *, *, #163, .T. ) ;
#121 = APPROVAL_DATE_TIME ( #25, #41 ) ;
#122 = EDGE_LOOP ( 'NONE', ( #137 ) ) ;
#123 = DIRECTION ( 'NONE',  ( -4.279844320860568687E-31, -1.000000000000000000, -1.204669080539461916E-16 ) ) ;
#124 = FACE_OUTER_BOUND ( 'NONE', #91, .T. ) ;
#125 = DIRECTION ( 'NONE',  ( -3.491481338843133355E-15, 1.224646799147353207E-16, -1.000000000000000000 ) ) ;
#126 = CARTESIAN_POINT ( 'NONE',  ( 0.0000000000000000000, 0.0000000000000000000, 0.0000000000000000000 ) ) ;
#127 = APPROVAL_PERSON_ORGANIZATION ( #203, #54, #74 ) ;
#128 = ADVANCED_FACE ( 'NONE', ( #124, #44 ), #84, .T. ) ;
#129 = DIRECTION ( 'NONE',  ( 3.491481338843133355E-15, -1.224646799147353207E-16, 1.000000000000000000 ) ) ;
#130 = CARTESIAN_POINT ( 'NONE',  ( 1.326762908760390423E-13, 0.3499999999999953149, 38.00000000000000000 ) ) ;
#131 = FACE_OUTER_BOUND ( 'NONE', #6, .T. ) ;
#132 = COORDINATED_UNIVERSAL_TIME_OFFSET ( 1, 0, .AHEAD. ) ;
#133 = MANIFOLD_SOLID_BREP ( 'Corps-Déplacer/Copier1[2]', #106 ) ;
#134 = APPROVAL_STATUS ( 'not_yet_approved' ) ;
#135 =( GEOMETRIC_REPRESENTATION_CONTEXT ( 3 ) GLOBAL_UNCERTAINTY_ASSIGNED_CONTEXT ( ( #95 ) ) GLOBAL_UNIT_ASSIGNED_CONTEXT ( ( #144, #184, #147 ) ) REPRESENTATION_CONTEXT ( 'NONE', 'WORKASPACE' ) );
#136 = CALENDAR_DATE ( 2021, 6, 10 ) ;
#137 = ORIENTED_EDGE ( 'NONE', *, *, #163, .F. ) ;
#138 = COORDINATED_UNIVERSAL_TIME_OFFSET ( 1, 0, .AHEAD. ) ;
#139 = CC_DESIGN_DATE_AND_TIME_ASSIGNMENT ( #101, #21, ( #90 ) ) ;
#140 = ORIENTED_EDGE ( 'NONE', *, *, #4, .T. ) ;
#141 = FACE_OUTER_BOUND ( 'NONE', #104, .T. ) ;
#142 = CARTESIAN_POINT ( 'NONE',  ( 5.586370142149013368E-14, 3.374459510989129669E-33, 16.00000000000000000 ) ) ;
#143 = APPROVAL ( #134, 'UNSPECIFIED' ) ;
#144 =( LENGTH_UNIT ( ) NAMED_UNIT ( * ) SI_UNIT ( .MILLI., .METRE. ) );
#145 = CARTESIAN_POINT ( 'NONE',  ( 5.586370142149013368E-14, -1.959434878635765131E-15, 16.00000000000000000 ) ) ;
#146 = CARTESIAN_POINT ( 'NONE',  ( 0.0000000000000000000, 0.0000000000000000000, 0.0000000000000000000 ) ) ;
#147 =( NAMED_UNIT ( * ) SI_UNIT ( $, .STERADIAN. ) SOLID_ANGLE_UNIT ( ) );
#148 = ADVANCED_BREP_SHAPE_REPRESENTATION ( '55599', ( #193, #133, #49 ), #135 ) ;
#149 = CALENDAR_DATE ( 2021, 6, 10 ) ;
#150 = DIRECTION ( 'NONE',  ( 1.000000000000000000, 0.0000000000000000000, 0.0000000000000000000 ) ) ;
#151 = APPROVAL_ROLE ( '' ) ;
#152 = CIRCLE ( 'NONE', #70, 0.4499999999999972911 ) ;
#153 = PERSON_AND_ORGANIZATION ( #14, #118 ) ;
#154 = EDGE_CURVE ( 'NONE', #18, #18, #110, .T. ) ;
#155 = ORIENTED_EDGE ( 'NONE', *, *, #4, .F. ) ;
#156 = ORIENTED_EDGE ( 'NONE', *, *, #171, .T. ) ;
#157 = EDGE_CURVE ( 'NONE', #172, #172, #152, .T. ) ;
#158 = VERTEX_POINT ( 'NONE', #130 ) ;
#159 = CC_DESIGN_PERSON_AND_ORGANIZATION_ASSIGNMENT ( #99, #23, ( #90 ) ) ;
#160 = DIRECTION ( 'NONE',  ( 3.491481338843133355E-15, -1.224646799147353207E-16, 1.000000000000000000 ) ) ;
#161 = PRODUCT_DEFINITION_FORMATION_WITH_SPECIFIED_SOURCE ( 'ANY', '', #114, .NOT_KNOWN. ) ;
#162 = CARTESIAN_POINT ( 'NONE',  ( 5.586370142149013368E-14, -1.959434878635765131E-15, 16.00000000000000000 ) ) ;
#163 = EDGE_CURVE ( 'NONE', #158, #158, #100, .T. ) ;
#164 = PERSON_AND_ORGANIZATION_ROLE ( 'design_supplier' ) ;
#165 = DIRECTION ( 'NONE',  ( 0.0000000000000000000, 0.0000000000000000000, 1.000000000000000000 ) ) ;
#166 = PERSON_AND_ORGANIZATION ( #14, #118 ) ;
#167 = DIRECTION ( 'NONE',  ( -3.491481338843133355E-15, 1.224646799147353207E-16, -1.000000000000000000 ) ) ;
#168 = AXIS2_PLACEMENT_3D ( 'NONE', #43, #27, #89 ) ;
#169 = DIRECTION ( 'NONE',  ( -3.491481338843133355E-15, 1.224646799147353207E-16, -1.000000000000000000 ) ) ;
#170 = DIRECTION ( 'NONE',  ( -4.275831445896958607E-31, -1.000000000000000000, -1.224646799147353207E-16 ) ) ;
#171 = EDGE_CURVE ( 'NONE', #51, #51, #202, .T. ) ;
#172 = VERTEX_POINT ( 'NONE', #92 ) ;
#173 = ADVANCED_FACE ( 'NONE', ( #131, #30 ), #20, .T. ) ;
#174 = ADVANCED_FACE ( 'NONE', ( #83 ), #62, .F. ) ;
#175 = LOCAL_TIME ( 13, 19, 47.00000000000000000, #138 ) ;
#176 = APPLICATION_PROTOCOL_DEFINITION ( 'international standard', 'config_control_design', 1994, #61 ) ;
#177 = PERSON_AND_ORGANIZATION ( #14, #118 ) ;
#178 = SHAPE_DEFINITION_REPRESENTATION ( #59, #148 ) ;
#179 = EDGE_LOOP ( 'NONE', ( #181 ) ) ;
#180 = ORIENTED_EDGE ( 'NONE', *, *, #157, .T. ) ;
#181 = ORIENTED_EDGE ( 'NONE', *, *, #157, .F. ) ;
#182 = CLOSED_SHELL ( 'NONE', ( #174, #187, #128, #201 ) ) ;
#183 = FACE_OUTER_BOUND ( 'NONE', #122, .T. ) ;
#184 =( NAMED_UNIT ( * ) PLANE_ANGLE_UNIT ( ) SI_UNIT ( $, .RADIAN. ) );
#185 = PLANE ( 'NONE',  #28 ) ;
#186 = CARTESIAN_POINT ( 'NONE',  ( 5.586370142149013368E-14, 0.4499999999999953482, 16.00000000000000000 ) ) ;
#187 = ADVANCED_FACE ( 'NONE', ( #46, #94 ), #96, .T. ) ;
#188 = APPROVAL_STATUS ( 'not_yet_approved' ) ;
#189 = PERSON_AND_ORGANIZATION ( #14, #118 ) ;
#190 = EDGE_LOOP ( 'NONE', ( #120 ) ) ;
#191 = EDGE_LOOP ( 'NONE', ( #156 ) ) ;
#192 = AXIS2_PLACEMENT_3D ( 'NONE', #126, #67, #77 ) ;
#193 = MANIFOLD_SOLID_BREP ( 'Corps-Déplacer/Copier1[1]', #182 ) ;
#194 = CARTESIAN_POINT ( 'NONE',  ( 7.326470189735212994E-16, -2.569779814398384453E-17, 0.2098384461697499481 ) ) ;
#195 = EDGE_LOOP ( 'NONE', ( #26 ) ) ;
#196 = DIRECTION ( 'NONE',  ( 4.275831445896958607E-31, 1.000000000000000000, 1.224646799147353207E-16 ) ) ;
#197 = AXIS2_PLACEMENT_3D ( 'NONE', #146, #64, #196 ) ;
#198 = ADVANCED_FACE ( 'NONE', ( #29 ), #82, .T. ) ;
#199 = DIRECTION ( 'NONE',  ( 0.0000000000000000000, 1.000000000000000000, 0.0000000000000000000 ) ) ;
#200 = CARTESIAN_POINT ( 'NONE',  ( 1.326762908760390423E-13, -4.653657836759941941E-15, 38.00000000000000000 ) ) ;
#201 = ADVANCED_FACE ( 'NONE', ( #183 ), #185, .F. ) ;
#202 = CIRCLE ( 'NONE', #63, 0.4500000000000000111 ) ;
#203 = PERSON_AND_ORGANIZATION ( #14, #118 ) ;
ENDSEC;
END-ISO-10303-21;
