ISO-10303-21;
HEADER;
FILE_DESCRIPTION (( 'STEP AP214' ),
    '1' );
FILE_NAME ('55510.step',
    '2024-04-04T09:55:58',
    ( '' ),
    ( '' ),
    'SwSTEP 2.0',
    'SolidWorks 2022',
    '' );
FILE_SCHEMA (( 'AUTOMOTIVE_DESIGN' ));
ENDSEC;

DATA;
#1 = EDGE_CURVE ( 'NONE', #153, #60, #73, .T. ) ;
#2 = CARTESIAN_POINT ( 'NONE',  ( 3.142333204958820020E-14, 0.000000000000000000, 9.000000000000000000 ) ) ;
#3 = COLOUR_RGB ( '',1.000000000000000000, 1.000000000000000000, 1.000000000000000000 ) ;
#4 = ORIENTED_EDGE ( 'NONE', *, *, #56, .F. ) ;
#5 = VERTEX_POINT ( 'NONE', #191 ) ;
#6 = ORIENTED_EDGE ( 'NONE', *, *, #199, .T. ) ;
#7 = MECHANICAL_DESIGN_GEOMETRIC_PRESENTATION_REPRESENTATION (  '', ( #74 ), #309 ) ;
#8 = ORIENTED_EDGE ( 'NONE', *, *, #56, .T. ) ;
#9 = CONICAL_SURFACE ( 'NONE', #283, 2.999999999999999112, 0.7853981633974458365 ) ;
#10 = PRESENTATION_LAYER_ASSIGNMENT (  '', '', ( #193 ) ) ;
#11 = DIRECTION ( 'NONE',  ( -3.491481338843133355E-15, 1.224646799147353207E-16, -1.000000000000000000 ) ) ;
#12 = DIRECTION ( 'NONE',  ( -1.000000000000000000, 0.000000000000000000, 3.491481338843133355E-15 ) ) ;
#13 = EDGE_CURVE ( 'NONE', #213, #136, #297, .T. ) ;
#14 =( LENGTH_UNIT ( ) NAMED_UNIT ( * ) SI_UNIT ( .MILLI., .METRE. ) );
#15 =( NAMED_UNIT ( * ) SI_UNIT ( $, .STERADIAN. ) SOLID_ANGLE_UNIT ( ) );
#16 = SURFACE_STYLE_USAGE ( .BOTH. , #244 ) ;
#17 = STYLED_ITEM ( 'NONE', ( #123 ), #114 ) ;
#18 = AXIS2_PLACEMENT_3D ( 'NONE', #330, #178, #248 ) ;
#19 = PRODUCT_DEFINITION_FORMATION_WITH_SPECIFIED_SOURCE ( 'ANY', '', #264, .NOT_KNOWN. ) ;
#20 = SURFACE_SIDE_STYLE ('',( #202 ) ) ;
#21 = DIRECTION ( 'NONE',  ( 3.327098416510788398E-15, 0.3382550599108817835, 0.9410544694355825746 ) ) ;
#22 = CARTESIAN_POINT ( 'NONE',  ( 1.990144363140586139E-13, -6.980486755139912911E-15, 57.00000000000000000 ) ) ;
#23 = AXIS2_PLACEMENT_3D ( 'NONE', #57, #105, #289 ) ;
#24 =( NAMED_UNIT ( * ) PLANE_ANGLE_UNIT ( ) SI_UNIT ( $, .RADIAN. ) );
#25 = EDGE_CURVE ( 'NONE', #137, #240, #81, .T. ) ;
#26 = DIRECTION ( 'NONE',  ( -3.491481338843133355E-15, 1.224646799147353207E-16, -1.000000000000000000 ) ) ;
#27 = EDGE_LOOP ( 'NONE', ( #82, #118, #113, #135 ) ) ;
#28 = ORIENTED_EDGE ( 'NONE', *, *, #274, .F. ) ;
#29 = ORIENTED_EDGE ( 'NONE', *, *, #206, .T. ) ;
#30 = ADVANCED_FACE ( 'NONE', ( #159 ), #172, .T. ) ;
#31 = PRESENTATION_LAYER_ASSIGNMENT (  '', '', ( #17 ) ) ;
#32 = EDGE_LOOP ( 'NONE', ( #190, #269, #112, #313 ) ) ;
#33 = VECTOR ( 'NONE', #157, 1000.000000000000114 ) ;
#34 = ORIENTED_EDGE ( 'NONE', *, *, #254, .F. ) ;
#35 = ADVANCED_FACE ( 'NONE', ( #247 ), #122, .F. ) ;
#36 = PRODUCT_DEFINITION_CONTEXT ( 'detailed design', #86, 'design' ) ;
#37 = DIRECTION ( 'NONE',  ( 0.000000000000000000, -1.000000000000000000, 0.000000000000000000 ) ) ;
#38 = CARTESIAN_POINT ( 'NONE',  ( 3.142333204958820020E-14, 1.999999999999999112, 9.000000000000000000 ) ) ;
#39 = DIRECTION ( 'NONE',  ( 0.000000000000000000, -1.000000000000000000, 0.000000000000000000 ) ) ;
#40 = AXIS2_PLACEMENT_3D ( 'NONE', #298, #11, #327 ) ;
#41 =( NAMED_UNIT ( * ) SI_UNIT ( $, .STERADIAN. ) SOLID_ANGLE_UNIT ( ) );
#42 = AXIS2_PLACEMENT_3D ( 'NONE', #141, #108, #230 ) ;
#43 = UNCERTAINTY_MEASURE_WITH_UNIT (LENGTH_MEASURE( 1.000000000000000082E-05 ), #226, 'distance_accuracy_value', 'NONE');
#44 = DIRECTION ( 'NONE',  ( 3.491481338843133355E-15, -0.000000000000000000, 1.000000000000000000 ) ) ;
#45 = LINE ( 'NONE', #146, #259 ) ;
#46 = CARTESIAN_POINT ( 'NONE',  ( 3.142333204958820020E-14, -1.102182119232617714E-15, 9.000000000000000000 ) ) ;
#47 = APPLICATION_PROTOCOL_DEFINITION ( 'draft international standard', 'automotive_design', 1998, #86 ) ;
#48 = DIRECTION ( 'NONE',  ( 1.000000000000000000, 0.000000000000000000, -3.491481338843133355E-15 ) ) ;
#49 = CIRCLE ( 'NONE', #234, 1.999999999999999112 ) ;
#50 = LINE ( 'NONE', #312, #198 ) ;
#51 = EDGE_LOOP ( 'NONE', ( #290, #293 ) ) ;
#52 = CARTESIAN_POINT ( 'NONE',  ( 1.193956334783364233E-13, -3.000000000000006217, 56.40000000000000568 ) ) ;
#53 = FILL_AREA_STYLE ('',( #342 ) ) ;
#54 =( GEOMETRIC_REPRESENTATION_CONTEXT ( 3 ) GLOBAL_UNCERTAINTY_ASSIGNED_CONTEXT ( ( #89 ) ) GLOBAL_UNIT_ASSIGNED_CONTEXT ( ( #14, #68, #41 ) ) REPRESENTATION_CONTEXT ( 'NONE', 'WORKASPACE' ) );
#55 = CARTESIAN_POINT ( 'NONE',  ( 0.000000000000000000, 0.000000000000000000, 0.000000000000000000 ) ) ;
#56 = EDGE_CURVE ( 'NONE', #240, #107, #301, .T. ) ;
#57 = CARTESIAN_POINT ( 'NONE',  ( 1.969195475107527465E-13, -6.907007947191072769E-15, 56.40000000000000568 ) ) ;
#58 = DIRECTION ( 'NONE',  ( 3.491481338843133355E-15, -0.000000000000000000, 1.000000000000000000 ) ) ;
#59 = ORIENTED_EDGE ( 'NONE', *, *, #282, .T. ) ;
#60 = VERTEX_POINT ( 'NONE', #245 ) ;
#61 = EDGE_LOOP ( 'NONE', ( #8, #111 ) ) ;
#62 = DIRECTION ( 'NONE',  ( 0.000000000000000000, -1.000000000000000000, 0.000000000000000000 ) ) ;
#63 = EDGE_CURVE ( 'NONE', #137, #188, #233, .T. ) ;
#64 = DIRECTION ( 'NONE',  ( 3.491481338843133355E-15, -0.000000000000000000, 1.000000000000000000 ) ) ;
#65 = FACE_OUTER_BOUND ( 'NONE', #216, .T. ) ;
#66 = CARTESIAN_POINT ( 'NONE',  ( 0.000000000000000000, 0.000000000000000000, 0.000000000000000000 ) ) ;
#67 = CONICAL_SURFACE ( 'NONE', #155, 2.000000000000000444, 0.3450620389298189039 ) ;
#68 =( NAMED_UNIT ( * ) PLANE_ANGLE_UNIT ( ) SI_UNIT ( $, .RADIAN. ) );
#69 = AXIS2_PLACEMENT_3D ( 'NONE', #38, #328, #94 ) ;
#70 = CARTESIAN_POINT ( 'NONE',  ( 1.969195475107527465E-13, -6.907007947191072769E-15, 56.40000000000000568 ) ) ;
#71 =( NAMED_UNIT ( * ) PLANE_ANGLE_UNIT ( ) SI_UNIT ( $, .RADIAN. ) );
#72 = DIRECTION ( 'NONE',  ( -3.491481338843133355E-15, 1.224646799147347537E-16, -1.000000000000000000 ) ) ;
#73 = CIRCLE ( 'NONE', #174, 2.400000000000005684 ) ;
#74 = STYLED_ITEM ( 'NONE', ( #197 ), #171 ) ;
#75 = DIRECTION ( 'NONE',  ( 0.000000000000000000, -1.000000000000000000, 0.000000000000000000 ) ) ;
#76 = CARTESIAN_POINT ( 'NONE',  ( 4.113693136643184705E-14, -1.442889319332218582E-15, 11.78208541709180324 ) ) ;
#77 = DIRECTION ( 'NONE',  ( -4.275831445896958607E-31, -1.000000000000000000, -1.224646799147353207E-16 ) ) ;
#78 = ORIENTED_EDGE ( 'NONE', *, *, #318, .F. ) ;
#79 = DIRECTION ( 'NONE',  ( 1.000000000000000000, 0.000000000000000000, -3.491481338843133355E-15 ) ) ;
#80 = CARTESIAN_POINT ( 'NONE',  ( 3.142333204958820020E-14, -1.102182119232617714E-15, 9.000000000000000000 ) ) ;
#81 = LINE ( 'NONE', #292, #308 ) ;
#82 = ORIENTED_EDGE ( 'NONE', *, *, #1, .F. ) ;
#83 =( GEOMETRIC_REPRESENTATION_CONTEXT ( 3 ) GLOBAL_UNCERTAINTY_ASSIGNED_CONTEXT ( ( #43 ) ) GLOBAL_UNIT_ASSIGNED_CONTEXT ( ( #226, #71, #15 ) ) REPRESENTATION_CONTEXT ( 'NONE', 'WORKASPACE' ) );
#84 = ORIENTED_EDGE ( 'NONE', *, *, #220, .F. ) ;
#85 = ORIENTED_EDGE ( 'NONE', *, *, #117, .F. ) ;
#86 = APPLICATION_CONTEXT ( 'automotive_design' ) ;
#87 = ADVANCED_FACE ( 'NONE', ( #120 ), #67, .T. ) ;
#88 = DIRECTION ( 'NONE',  ( 3.491481338843133355E-15, -1.224646799147353207E-16, 1.000000000000000000 ) ) ;
#89 = UNCERTAINTY_MEASURE_WITH_UNIT (LENGTH_MEASURE( 1.000000000000000082E-05 ), #14, 'distance_accuracy_value', 'NONE');
#90 = DIRECTION ( 'NONE',  ( 1.000000000000000000, 0.000000000000000000, -3.469446951953615767E-15 ) ) ;
#91 = VECTOR ( 'NONE', #210, 1000.000000000000000 ) ;
#92 = DIRECTION ( 'NONE',  ( 1.000000000000000000, 0.000000000000000000, 0.000000000000000000 ) ) ;
#93 = LINE ( 'NONE', #249, #138 ) ;
#94 = DIRECTION ( 'NONE',  ( 4.275831445896958607E-31, 1.000000000000000000, 1.224646799147353207E-16 ) ) ;
#95 = CARTESIAN_POINT ( 'NONE',  ( 3.142333204958820020E-14, -1.102182119232617714E-15, 9.000000000000000000 ) ) ;
#96 = PLANE ( 'NONE',  #69 ) ;
#97 = CARTESIAN_POINT ( 'NONE',  ( 3.142333204958820020E-14, 1.999999999999999112, 9.000000000000000000 ) ) ;
#98 = SURFACE_STYLE_FILL_AREA ( #225 ) ;
#99 = CIRCLE ( 'NONE', #109, 2.000000000000000000 ) ;
#100 = EDGE_CURVE ( 'NONE', #188, #107, #93, .T. ) ;
#101 = CARTESIAN_POINT ( 'NONE',  ( 4.113693136643184705E-14, 2.999999999999995115, 11.78208541709180324 ) ) ;
#102 = ADVANCED_FACE ( 'NONE', ( #331 ), #229, .F. ) ;
#103 = DIRECTION ( 'NONE',  ( 2.664535259100375697E-14, -1.000000000000000000, 0.000000000000000000 ) ) ;
#104 = CIRCLE ( 'NONE', #266, 2.999999999999999112 ) ;
#105 = DIRECTION ( 'NONE',  ( -3.491481338843133355E-15, 1.224646799147347537E-16, -1.000000000000000000 ) ) ;
#106 = CARTESIAN_POINT ( 'NONE',  ( 2.000000000000030198, 0.000000000000000000, 8.999999999999992895 ) ) ;
#107 = VERTEX_POINT ( 'NONE', #170 ) ;
#108 = DIRECTION ( 'NONE',  ( -3.491481338843133355E-15, 1.224646799147353207E-16, -1.000000000000000000 ) ) ;
#109 = AXIS2_PLACEMENT_3D ( 'NONE', #55, #235, #79 ) ;
#110 = DIRECTION ( 'NONE',  ( 1.000000000000000000, 0.000000000000000000, -3.469446951953614978E-15 ) ) ;
#111 = ORIENTED_EDGE ( 'NONE', *, *, #242, .T. ) ;
#112 = ORIENTED_EDGE ( 'NONE', *, *, #318, .T. ) ;
#113 = ORIENTED_EDGE ( 'NONE', *, *, #199, .F. ) ;
#114 = MANIFOLD_SOLID_BREP ( 'Corps-Déplacer/Copier1[1]', #115 ) ;
#115 = CLOSED_SHELL ( 'NONE', ( #160, #87, #30, #314, #176, #158, #149, #126 ) ) ;
#116 = EDGE_LOOP ( 'NONE', ( #217, #29, #140, #163 ) ) ;
#117 = EDGE_CURVE ( 'NONE', #268, #213, #104, .T. ) ;
#118 = ORIENTED_EDGE ( 'NONE', *, *, #274, .T. ) ;
#119 = PRODUCT_RELATED_PRODUCT_CATEGORY ( 'part', '', ( #264 ) ) ;
#120 = FACE_OUTER_BOUND ( 'NONE', #208, .T. ) ;
#121 = DIRECTION ( 'NONE',  ( 3.491481338843133355E-15, -0.000000000000000000, 1.000000000000000000 ) ) ;
#122 = PLANE ( 'NONE',  #142 ) ;
#123 = PRESENTATION_STYLE_ASSIGNMENT (( #175 ) ) ;
#124 = FACE_OUTER_BOUND ( 'NONE', #32, .T. ) ;
#125 = CONICAL_SURFACE ( 'NONE', #23, 2.999999999999999112, 0.7853981633974458365 ) ;
#126 = ADVANCED_FACE ( 'NONE', ( #65 ), #9, .T. ) ;
#127 = DIRECTION ( 'NONE',  ( 0.000000000000000000, 1.000000000000000000, 0.000000000000000000 ) ) ;
#128 = CARTESIAN_POINT ( 'NONE',  ( 1.190282394385922936E-13, 2.999999999999992450, 56.40000000000000568 ) ) ;
#129 = CARTESIAN_POINT ( 'NONE',  ( 4.113693136643184705E-14, -1.442889319332218582E-15, 11.78208541709180324 ) ) ;
#130 = AXIS2_PLACEMENT_3D ( 'NONE', #66, #275, #48 ) ;
#131 = AXIS2_PLACEMENT_3D ( 'NONE', #2, #134, #110 ) ;
#132 = AXIS2_PLACEMENT_3D ( 'NONE', #279, #173, #92 ) ;
#133 = FACE_OUTER_BOUND ( 'NONE', #27, .T. ) ;
#134 = DIRECTION ( 'NONE',  ( 3.491481338843133355E-15, -0.000000000000000000, 1.000000000000000000 ) ) ;
#135 = ORIENTED_EDGE ( 'NONE', *, *, #165, .F. ) ;
#136 = VERTEX_POINT ( 'NONE', #101 ) ;
#137 = VERTEX_POINT ( 'NONE', #329 ) ;
#138 = VECTOR ( 'NONE', #64, 1000.000000000000000 ) ;
#139 = ORIENTED_EDGE ( 'NONE', *, *, #220, .T. ) ;
#140 = ORIENTED_EDGE ( 'NONE', *, *, #25, .T. ) ;
#141 = CARTESIAN_POINT ( 'NONE',  ( 0.000000000000000000, 0.000000000000000000, 0.000000000000000000 ) ) ;
#142 = AXIS2_PLACEMENT_3D ( 'NONE', #300, #44, #251 ) ;
#143 = AXIS2_PLACEMENT_3D ( 'NONE', #182, #253, #127 ) ;
#144 = SURFACE_STYLE_FILL_AREA ( #177 ) ;
#145 = CARTESIAN_POINT ( 'NONE',  ( 3.142333204958820020E-14, 0.000000000000000000, 9.000000000000000000 ) ) ;
#146 = CARTESIAN_POINT ( 'NONE',  ( 3.142333204958820020E-14, -2.000000000000001776, 9.000000000000000000 ) ) ;
#147 = FACE_OUTER_BOUND ( 'NONE', #211, .T. ) ;
#148 = SHAPE_DEFINITION_REPRESENTATION ( #288, #171 ) ;
#149 = ADVANCED_FACE ( 'NONE', ( #124 ), #246, .T. ) ;
#150 = CIRCLE ( 'NONE', #143, 2.000000000000000444 ) ;
#151 = APPLICATION_CONTEXT ( 'automotive_design' ) ;
#152 = PLANE ( 'NONE',  #252 ) ;
#153 = VERTEX_POINT ( 'NONE', #196 ) ;
#154 = CARTESIAN_POINT ( 'NONE',  ( 1.969195475107527465E-13, 2.999999999999992450, 56.40000000000000568 ) ) ;
#155 = AXIS2_PLACEMENT_3D ( 'NONE', #46, #302, #39 ) ;
#156 = ORIENTED_EDGE ( 'NONE', *, *, #13, .T. ) ;
#157 = DIRECTION ( 'NONE',  ( -2.382254525458722992E-15, -0.7071067811865456854, -0.7071067811865493491 ) ) ;
#158 = ADVANCED_FACE ( 'NONE', ( #147 ), #280, .T. ) ;
#159 = FACE_OUTER_BOUND ( 'NONE', #212, .T. ) ;
#160 = ADVANCED_FACE ( 'NONE', ( #133 ), #125, .T. ) ;
#161 = AXIS2_PLACEMENT_3D ( 'NONE', #95, #273, #37 ) ;
#162 = CIRCLE ( 'NONE', #223, 2.999999999999996447 ) ;
#163 = ORIENTED_EDGE ( 'NONE', *, *, #242, .F. ) ;
#164 = ORIENTED_EDGE ( 'NONE', *, *, #260, .T. ) ;
#165 = EDGE_CURVE ( 'NONE', #60, #213, #338, .T. ) ;
#166 = EDGE_LOOP ( 'NONE', ( #296, #323 ) ) ;
#167 = CIRCLE ( 'NONE', #322, 2.000000000000000444 ) ;
#168 = ORIENTED_EDGE ( 'NONE', *, *, #117, .T. ) ;
#169 = UNCERTAINTY_MEASURE_WITH_UNIT (LENGTH_MEASURE( 1.000000000000000082E-05 ), #222, 'distance_accuracy_value', 'NONE');
#170 = CARTESIAN_POINT ( 'NONE',  ( -1.999999999999968026, 2.449293598294705921E-16, 9.000000000000007105 ) ) ;
#171 = ADVANCED_BREP_SHAPE_REPRESENTATION ( '55510', ( #114, #218, #132 ), #54 ) ;
#172 = CYLINDRICAL_SURFACE ( 'NONE', #40, 2.999999999999999112 ) ;
#173 = DIRECTION ( 'NONE',  ( 0.000000000000000000, 0.000000000000000000, 1.000000000000000000 ) ) ;
#174 = AXIS2_PLACEMENT_3D ( 'NONE', #324, #88, #62 ) ;
#175 = SURFACE_STYLE_USAGE ( .BOTH. , #305 ) ;
#176 = ADVANCED_FACE ( 'NONE', ( #341 ), #152, .T. ) ;
#177 = FILL_AREA_STYLE ('',( #224 ) ) ;
#178 = DIRECTION ( 'NONE',  ( 3.491481338843133355E-15, -0.000000000000000000, 1.000000000000000000 ) ) ;
#179 = CARTESIAN_POINT ( 'NONE',  ( 1.990144363140586139E-13, -6.980486755139912911E-15, 57.00000000000000000 ) ) ;
#180 = ORIENTED_EDGE ( 'NONE', *, *, #185, .F. ) ;
#181 = CARTESIAN_POINT ( 'NONE',  ( 3.658629340779685834E-14, 1.999999999999999112, 9.000000000000000000 ) ) ;
#182 = CARTESIAN_POINT ( 'NONE',  ( 3.142333204958820020E-14, -1.102182119232617714E-15, 9.000000000000000000 ) ) ;
#183 = MECHANICAL_DESIGN_GEOMETRIC_PRESENTATION_REPRESENTATION (  '', ( #193 ), #203 ) ;
#184 = DIRECTION ( 'NONE',  ( 3.491481338843133355E-15, -0.000000000000000000, 1.000000000000000000 ) ) ;
#185 = EDGE_CURVE ( 'NONE', #5, #136, #162, .T. ) ;
#186 = LINE ( 'NONE', #291, #33 ) ;
#187 = CARTESIAN_POINT ( 'NONE',  ( 1.282749433769087232E-30, 2.999999999999999112, 3.673940397442058882E-16 ) ) ;
#188 = VERTEX_POINT ( 'NONE', #231 ) ;
#189 = ORIENTED_EDGE ( 'NONE', *, *, #63, .T. ) ;
#190 = ORIENTED_EDGE ( 'NONE', *, *, #260, .F. ) ;
#191 = CARTESIAN_POINT ( 'NONE',  ( 1.193956334783364486E-13, -2.999999999999997780, 11.78208541709180324 ) ) ;
#192 = CLOSED_SHELL ( 'NONE', ( #333, #270, #102, #35 ) ) ;
#193 = STYLED_ITEM ( 'NONE', ( #311 ), #218 ) ;
#194 = DIRECTION ( 'NONE',  ( -2.575717417130363174E-14, -1.000000000000000000, 0.000000000000000000 ) ) ;
#195 = EDGE_CURVE ( 'NONE', #241, #267, #150, .T. ) ;
#196 = CARTESIAN_POINT ( 'NONE',  ( 1.982976465481754853E-13, -2.400000000000012790, 57.00000000000000000 ) ) ;
#197 = PRESENTATION_STYLE_ASSIGNMENT (( #16 ) ) ;
#198 = VECTOR ( 'NONE', #21, 999.9999999999998863 ) ;
#199 = EDGE_CURVE ( 'NONE', #213, #268, #294, .T. ) ;
#200 = DIRECTION ( 'NONE',  ( -3.491481338843133355E-15, 1.224646799147347537E-16, -1.000000000000000000 ) ) ;
#201 = APPLICATION_PROTOCOL_DEFINITION ( 'draft international standard', 'automotive_design', 1998, #151 ) ;
#202 = SURFACE_STYLE_FILL_AREA ( #53 ) ;
#203 =( GEOMETRIC_REPRESENTATION_CONTEXT ( 3 ) GLOBAL_UNCERTAINTY_ASSIGNED_CONTEXT ( ( #219 ) ) GLOBAL_UNIT_ASSIGNED_CONTEXT ( ( #207, #24, #255 ) ) REPRESENTATION_CONTEXT ( 'NONE', 'WORKASPACE' ) );
#204 = DIRECTION ( 'NONE',  ( -3.491481338843133355E-15, 1.224646799147353207E-16, -1.000000000000000000 ) ) ;
#205 = CARTESIAN_POINT ( 'NONE',  ( 3.628013170801002678E-14, -2.000000000000001776, 9.000000000000000000 ) ) ;
#206 = EDGE_CURVE ( 'NONE', #188, #137, #99, .T. ) ;
#207 =( LENGTH_UNIT ( ) NAMED_UNIT ( * ) SI_UNIT ( .MILLI., .METRE. ) );
#208 = EDGE_LOOP ( 'NONE', ( #239, #164, #139, #78 ) ) ;
#209 = COLOUR_RGB ( '',1.000000000000000000, 1.000000000000000000, 1.000000000000000000 ) ;
#210 = DIRECTION ( 'NONE',  ( -3.491481338843133355E-15, 1.224646799147353207E-16, -1.000000000000000000 ) ) ;
#211 = EDGE_LOOP ( 'NONE', ( #295, #168, #156, #180 ) ) ;
#212 = EDGE_LOOP ( 'NONE', ( #6, #59, #84, #256 ) ) ;
#213 = VERTEX_POINT ( 'NONE', #128 ) ;
#214 = AXIS2_PLACEMENT_3D ( 'NONE', #145, #121, #90 ) ;
#215 = VECTOR ( 'NONE', #307, 1000.000000000000114 ) ;
#216 = EDGE_LOOP ( 'NONE', ( #28, #34, #238, #85 ) ) ;
#217 = ORIENTED_EDGE ( 'NONE', *, *, #100, .F. ) ;
#218 = MANIFOLD_SOLID_BREP ( 'Corps-Déplacer/Copier1[2]', #192 ) ;
#219 = UNCERTAINTY_MEASURE_WITH_UNIT (LENGTH_MEASURE( 1.000000000000000082E-05 ), #207, 'distance_accuracy_value', 'NONE');
#220 = EDGE_CURVE ( 'NONE', #136, #5, #334, .T. ) ;
#221 = DIRECTION ( 'NONE',  ( 0.000000000000000000, 1.000000000000000000, 0.000000000000000000 ) ) ;
#222 =( LENGTH_UNIT ( ) NAMED_UNIT ( * ) SI_UNIT ( .MILLI., .METRE. ) );
#223 = AXIS2_PLACEMENT_3D ( 'NONE', #129, #204, #285 ) ;
#224 = FILL_AREA_STYLE_COLOUR ( '', #271 ) ;
#225 = FILL_AREA_STYLE ('',( #303 ) ) ;
#226 =( LENGTH_UNIT ( ) NAMED_UNIT ( * ) SI_UNIT ( .MILLI., .METRE. ) );
#227 = FACE_OUTER_BOUND ( 'NONE', #265, .T. ) ;
#228 = AXIS2_PLACEMENT_3D ( 'NONE', #76, #343, #310 ) ;
#229 = PLANE ( 'NONE',  #332 ) ;
#230 = DIRECTION ( 'NONE',  ( 4.275831445896958607E-31, 1.000000000000000000, 1.224646799147353207E-16 ) ) ;
#231 = CARTESIAN_POINT ( 'NONE',  ( -2.000000000000000000, 2.449293598294725643E-16, 6.982962677686266711E-15 ) ) ;
#232 = CYLINDRICAL_SURFACE ( 'NONE', #131, 1.999999999999999556 ) ;
#233 = CIRCLE ( 'NONE', #130, 2.000000000000000000 ) ;
#234 = AXIS2_PLACEMENT_3D ( 'NONE', #315, #184, #337 ) ;
#235 = DIRECTION ( 'NONE',  ( 3.491481338843133355E-15, -0.000000000000000000, 1.000000000000000000 ) ) ;
#236 = DIRECTION ( 'NONE',  ( 0.000000000000000000, 1.000000000000000000, 0.000000000000000000 ) ) ;
#237 = AXIS2_PLACEMENT_3D ( 'NONE', #179, #284, #75 ) ;
#238 = ORIENTED_EDGE ( 'NONE', *, *, #165, .T. ) ;
#239 = ORIENTED_EDGE ( 'NONE', *, *, #304, .F. ) ;
#240 = VERTEX_POINT ( 'NONE', #106 ) ;
#241 = VERTEX_POINT ( 'NONE', #205 ) ;
#242 = EDGE_CURVE ( 'NONE', #107, #240, #49, .T. ) ;
#243 = ORIENTED_EDGE ( 'NONE', *, *, #25, .F. ) ;
#244 = SURFACE_SIDE_STYLE ('',( #98 ) ) ;
#245 = CARTESIAN_POINT ( 'NONE',  ( 1.979669919124056928E-13, 2.399999999999999023, 57.00000000000000000 ) ) ;
#246 = CONICAL_SURFACE ( 'NONE', #161, 2.000000000000000444, 0.3450620389298189039 ) ;
#247 = FACE_OUTER_BOUND ( 'NONE', #262, .T. ) ;
#248 = DIRECTION ( 'NONE',  ( 1.000000000000000000, 0.000000000000000000, -3.469446951953614978E-15 ) ) ;
#249 = CARTESIAN_POINT ( 'NONE',  ( -1.999999999999968470, 2.449293598294705921E-16, 9.000000000000007105 ) ) ;
#250 = DIRECTION ( 'NONE',  ( 3.285674118869262210E-15, -0.3382550599108819500, 0.9410544694355824635 ) ) ;
#251 = DIRECTION ( 'NONE',  ( 1.000000000000000000, 0.000000000000000000, -3.491481338843133355E-15 ) ) ;
#252 = AXIS2_PLACEMENT_3D ( 'NONE', #22, #286, #77 ) ;
#253 = DIRECTION ( 'NONE',  ( -3.491481338843133355E-15, 1.224646799147353207E-16, -1.000000000000000000 ) ) ;
#254 = EDGE_CURVE ( 'NONE', #60, #153, #276, .T. ) ;
#255 =( NAMED_UNIT ( * ) SI_UNIT ( $, .STERADIAN. ) SOLID_ANGLE_UNIT ( ) );
#256 = ORIENTED_EDGE ( 'NONE', *, *, #13, .F. ) ;
#257 = FACE_OUTER_BOUND ( 'NONE', #116, .T. ) ;
#258 = SURFACE_STYLE_USAGE ( .BOTH. , #20 ) ;
#259 = VECTOR ( 'NONE', #250, 1000.000000000000000 ) ;
#260 = EDGE_CURVE ( 'NONE', #267, #136, #50, .T. ) ;
#261 = CARTESIAN_POINT ( 'NONE',  ( 1.969195475107527465E-13, -6.907007947191072769E-15, 56.40000000000000568 ) ) ;
#262 = EDGE_LOOP ( 'NONE', ( #272, #321 ) ) ;
#263 = CARTESIAN_POINT ( 'NONE',  ( 3.673940397442046063E-16, -2.999999999999999112, -3.673940397442071208E-16 ) ) ;
#264 = PRODUCT ( '55510', '55510', '', ( #306 ) ) ;
#265 = EDGE_LOOP ( 'NONE', ( #189, #320, #4, #243 ) ) ;
#266 = AXIS2_PLACEMENT_3D ( 'NONE', #335, #200, #194 ) ;
#267 = VERTEX_POINT ( 'NONE', #181 ) ;
#268 = VERTEX_POINT ( 'NONE', #52 ) ;
#269 = ORIENTED_EDGE ( 'NONE', *, *, #195, .F. ) ;
#270 = ADVANCED_FACE ( 'NONE', ( #257 ), #232, .T. ) ;
#271 = COLOUR_RGB ( '',1.000000000000000000, 1.000000000000000000, 1.000000000000000000 ) ;
#272 = ORIENTED_EDGE ( 'NONE', *, *, #63, .F. ) ;
#273 = DIRECTION ( 'NONE',  ( 3.491481338843133355E-15, -1.224646799147353207E-16, 1.000000000000000000 ) ) ;
#274 = EDGE_CURVE ( 'NONE', #153, #268, #186, .T. ) ;
#275 = DIRECTION ( 'NONE',  ( 3.491481338843133355E-15, -0.000000000000000000, 1.000000000000000000 ) ) ;
#276 = CIRCLE ( 'NONE', #237, 2.400000000000005684 ) ;
#277 = FACE_OUTER_BOUND ( 'NONE', #51, .T. ) ;
#278 = DIRECTION ( 'NONE',  ( -3.491481338843133355E-15, 1.224646799147347537E-16, -1.000000000000000000 ) ) ;
#279 = CARTESIAN_POINT ( 'NONE',  ( 0.000000000000000000, 0.000000000000000000, 0.000000000000000000 ) ) ;
#280 = CYLINDRICAL_SURFACE ( 'NONE', #42, 2.999999999999999112 ) ;
#281 = CYLINDRICAL_SURFACE ( 'NONE', #18, 1.999999999999999556 ) ;
#282 = EDGE_CURVE ( 'NONE', #268, #5, #317, .T. ) ;
#283 = AXIS2_PLACEMENT_3D ( 'NONE', #70, #278, #221 ) ;
#284 = DIRECTION ( 'NONE',  ( 3.491481338843133355E-15, -1.224646799147353207E-16, 1.000000000000000000 ) ) ;
#285 = DIRECTION ( 'NONE',  ( 0.000000000000000000, 1.000000000000000000, 0.000000000000000000 ) ) ;
#286 = DIRECTION ( 'NONE',  ( 3.491481338843133355E-15, -1.224646799147353207E-16, 1.000000000000000000 ) ) ;
#287 = PRESENTATION_LAYER_ASSIGNMENT (  '', '', ( #74 ) ) ;
#288 = PRODUCT_DEFINITION_SHAPE ( 'NONE', 'NONE',  #336 ) ;
#289 = DIRECTION ( 'NONE',  ( 0.000000000000000000, 1.000000000000000000, 0.000000000000000000 ) ) ;
#290 = ORIENTED_EDGE ( 'NONE', *, *, #195, .T. ) ;
#291 = CARTESIAN_POINT ( 'NONE',  ( 1.972869415504969519E-13, -3.000000000000006217, 56.40000000000000568 ) ) ;
#292 = CARTESIAN_POINT ( 'NONE',  ( 2.000000000000030642, 0.000000000000000000, 8.999999999999992895 ) ) ;
#293 = ORIENTED_EDGE ( 'NONE', *, *, #304, .T. ) ;
#294 = CIRCLE ( 'NONE', #340, 2.999999999999999112 ) ;
#295 = ORIENTED_EDGE ( 'NONE', *, *, #282, .F. ) ;
#296 = ORIENTED_EDGE ( 'NONE', *, *, #254, .T. ) ;
#297 = LINE ( 'NONE', #187, #339 ) ;
#298 = CARTESIAN_POINT ( 'NONE',  ( 0.000000000000000000, 0.000000000000000000, 0.000000000000000000 ) ) ;
#299 =( NAMED_UNIT ( * ) SI_UNIT ( $, .STERADIAN. ) SOLID_ANGLE_UNIT ( ) );
#300 = CARTESIAN_POINT ( 'NONE',  ( 3.313769370570143840E-31, 2.000000000000000000, 9.491012693391989759E-17 ) ) ;
#301 = CIRCLE ( 'NONE', #214, 1.999999999999999112 ) ;
#302 = DIRECTION ( 'NONE',  ( 3.491481338843133355E-15, -1.224646799147353207E-16, 1.000000000000000000 ) ) ;
#303 = FILL_AREA_STYLE_COLOUR ( '', #209 ) ;
#304 = EDGE_CURVE ( 'NONE', #267, #241, #167, .T. ) ;
#305 = SURFACE_SIDE_STYLE ('',( #144 ) ) ;
#306 = PRODUCT_CONTEXT ( 'NONE', #151, 'mechanical' ) ;
#307 = DIRECTION ( 'NONE',  ( -2.468850131082271260E-15, 0.7071067811865459074, -0.7071067811865491270 ) ) ;
#308 = VECTOR ( 'NONE', #58, 1000.000000000000000 ) ;
#309 =( GEOMETRIC_REPRESENTATION_CONTEXT ( 3 ) GLOBAL_UNCERTAINTY_ASSIGNED_CONTEXT ( ( #169 ) ) GLOBAL_UNIT_ASSIGNED_CONTEXT ( ( #222, #326, #299 ) ) REPRESENTATION_CONTEXT ( 'NONE', 'WORKASPACE' ) );
#310 = DIRECTION ( 'NONE',  ( 0.000000000000000000, 1.000000000000000000, 0.000000000000000000 ) ) ;
#311 = PRESENTATION_STYLE_ASSIGNMENT (( #258 ) ) ;
#312 = CARTESIAN_POINT ( 'NONE',  ( 3.166826140941767049E-14, 1.999999999999999112, 9.000000000000000000 ) ) ;
#313 = ORIENTED_EDGE ( 'NONE', *, *, #185, .T. ) ;
#314 = ADVANCED_FACE ( 'NONE', ( #277 ), #96, .T. ) ;
#315 = CARTESIAN_POINT ( 'NONE',  ( 3.142333204958820020E-14, 0.000000000000000000, 9.000000000000000000 ) ) ;
#316 = MECHANICAL_DESIGN_GEOMETRIC_PRESENTATION_REPRESENTATION (  '', ( #17 ), #83 ) ;
#317 = LINE ( 'NONE', #263, #91 ) ;
#318 = EDGE_CURVE ( 'NONE', #241, #5, #45, .T. ) ;
#319 = DIRECTION ( 'NONE',  ( -3.491481338843133355E-15, 1.224646799147353207E-16, -1.000000000000000000 ) ) ;
#320 = ORIENTED_EDGE ( 'NONE', *, *, #100, .T. ) ;
#321 = ORIENTED_EDGE ( 'NONE', *, *, #206, .F. ) ;
#322 = AXIS2_PLACEMENT_3D ( 'NONE', #80, #26, #236 ) ;
#323 = ORIENTED_EDGE ( 'NONE', *, *, #1, .T. ) ;
#324 = CARTESIAN_POINT ( 'NONE',  ( 1.990144363140586139E-13, -6.980486755139912911E-15, 57.00000000000000000 ) ) ;
#325 = DIRECTION ( 'NONE',  ( -3.491481338843133355E-15, 0.000000000000000000, -1.000000000000000000 ) ) ;
#326 =( NAMED_UNIT ( * ) PLANE_ANGLE_UNIT ( ) SI_UNIT ( $, .RADIAN. ) );
#327 = DIRECTION ( 'NONE',  ( 4.275831445896958607E-31, 1.000000000000000000, 1.224646799147353207E-16 ) ) ;
#328 = DIRECTION ( 'NONE',  ( -3.491481338843133355E-15, 1.224646799147353207E-16, -1.000000000000000000 ) ) ;
#329 = CARTESIAN_POINT ( 'NONE',  ( 2.000000000000000000, 0.000000000000000000, -6.982962677686266711E-15 ) ) ;
#330 = CARTESIAN_POINT ( 'NONE',  ( 3.142333204958820020E-14, 0.000000000000000000, 9.000000000000000000 ) ) ;
#331 = FACE_OUTER_BOUND ( 'NONE', #61, .T. ) ;
#332 = AXIS2_PLACEMENT_3D ( 'NONE', #97, #325, #12 ) ;
#333 = ADVANCED_FACE ( 'NONE', ( #227 ), #281, .T. ) ;
#334 = CIRCLE ( 'NONE', #228, 2.999999999999996447 ) ;
#335 = CARTESIAN_POINT ( 'NONE',  ( 1.969195475107527465E-13, -6.907007947191072769E-15, 56.40000000000000568 ) ) ;
#336 = PRODUCT_DEFINITION ( 'UNKNOWN', '', #19, #36 ) ;
#337 = DIRECTION ( 'NONE',  ( 1.000000000000000000, 0.000000000000000000, -3.469446951953615767E-15 ) ) ;
#338 = LINE ( 'NONE', #154, #215 ) ;
#339 = VECTOR ( 'NONE', #319, 1000.000000000000000 ) ;
#340 = AXIS2_PLACEMENT_3D ( 'NONE', #261, #72, #103 ) ;
#341 = FACE_OUTER_BOUND ( 'NONE', #166, .T. ) ;
#342 = FILL_AREA_STYLE_COLOUR ( '', #3 ) ;
#343 = DIRECTION ( 'NONE',  ( -3.491481338843133355E-15, 1.224646799147353207E-16, -1.000000000000000000 ) ) ;
ENDSEC;
END-ISO-10303-21;
