ISO-10303-21;
HEADER;
FILE_DESCRIPTION (( 'STEP AP203' ),
    '1' );
FILE_NAME ('55482.step',
    '2021-10-06T11:19:47',
    ( '' ),
    ( '' ),
    'SwSTEP 2.0',
    'SolidWorks 2019',
    '' );
FILE_SCHEMA (( 'CONFIG_CONTROL_DESIGN' ));
ENDSEC;

DATA;
#1 = AXIS2_PLACEMENT_3D ( 'NONE', #152, #31, #195 ) ;
#2 = CARTESIAN_POINT ( 'NONE',  ( 6.919444068083254307E-16, 0.4249999999999953260, 0.1981807547158748739 ) ) ;
#3 = AXIS2_PLACEMENT_3D ( 'NONE', #137, #46, #96 ) ;
#4 = APPLICATION_PROTOCOL_DEFINITION ( 'international standard', 'config_control_design', 1994, #41 ) ;
#5 = DIRECTION ( 'NONE',  ( -3.491481338843133355E-15, 1.224646799147353207E-16, -1.000000000000000000 ) ) ;
#6 = DIRECTION ( 'NONE',  ( -3.491481338843133355E-15, 1.224646799147353207E-16, -1.000000000000000000 ) ) ;
#7 = COORDINATED_UNIVERSAL_TIME_OFFSET ( 1, 0, .AHEAD. ) ;
#8 = CIRCLE ( 'NONE', #12, 0.4249999999999968803 ) ;
#9 = APPLICATION_CONTEXT ( 'configuration controlled 3d designs of mechanical parts and assemblies' ) ;
#10 = FACE_OUTER_BOUND ( 'NONE', #109, .T. ) ;
#11 = PERSON_AND_ORGANIZATION_ROLE ( 'design_owner' ) ;
#12 = AXIS2_PLACEMENT_3D ( 'NONE', #151, #62, #157 ) ;
#13 = AXIS2_PLACEMENT_3D ( 'NONE', #50, #81, #16 ) ;
#14 = CARTESIAN_POINT ( 'NONE',  ( 1.323271427421547605E-13, 0.4249999999999953260, 37.89999999999999858 ) ) ;
#15 = CC_DESIGN_APPROVAL ( #59, ( #165 ) ) ;
#16 = DIRECTION ( 'NONE',  ( 4.275831445896958607E-31, 1.000000000000000000, 1.224646799147353207E-16 ) ) ;
#17 = SECURITY_CLASSIFICATION ( '', '', #156 ) ;
#18 = ORIENTED_EDGE ( 'NONE', *, *, #38, .F. ) ;
#19 = FACE_OUTER_BOUND ( 'NONE', #65, .T. ) ;
#20 = APPROVAL_STATUS ( 'not_yet_approved' ) ;
#21 = VERTEX_POINT ( 'NONE', #14 ) ;
#22 = FACE_BOUND ( 'NONE', #113, .T. ) ;
#23 = FACE_OUTER_BOUND ( 'NONE', #155, .T. ) ;
#24 = CALENDAR_DATE ( 2021, 6, 10 ) ;
#25 = AXIS2_PLACEMENT_3D ( 'NONE', #153, #107, #185 ) ;
#26 = ADVANCED_FACE ( 'NONE', ( #23 ), #128, .F. ) ;
#27 = CONICAL_SURFACE ( 'NONE', #60, 0.4249999999999953260, 1.134464013796309123 ) ;
#28 = AXIS2_PLACEMENT_3D ( 'NONE', #123, #5, #172 ) ;
#29 = VERTEX_POINT ( 'NONE', #167 ) ;
#30 = CC_DESIGN_PERSON_AND_ORGANIZATION_ASSIGNMENT ( #161, #67, ( #165 ) ) ;
#31 = DIRECTION ( 'NONE',  ( -3.491481338843133355E-15, 1.224646799147353207E-16, -1.000000000000000000 ) ) ;
#32 = UNCERTAINTY_MEASURE_WITH_UNIT (LENGTH_MEASURE( 1.000000000000000082E-05 ), #110, 'distance_accuracy_value', 'NONE');
#33 = ORIENTED_EDGE ( 'NONE', *, *, #118, .F. ) ;
#34 = LOCAL_TIME ( 13, 19, 47.00000000000000000, #56 ) ;
#35 = DIRECTION ( 'NONE',  ( 3.491481338843133355E-15, -1.224646799147353207E-16, 1.000000000000000000 ) ) ;
#36 = FACE_OUTER_BOUND ( 'NONE', #190, .T. ) ;
#37 = CALENDAR_DATE ( 2021, 6, 10 ) ;
#38 = EDGE_CURVE ( 'NONE', #80, #80, #203, .T. ) ;
#39 = CLOSED_SHELL ( 'NONE', ( #188, #78, #181 ) ) ;
#40 = PERSON_AND_ORGANIZATION_ROLE ( 'creator' ) ;
#41 = APPLICATION_CONTEXT ( 'configuration controlled 3d designs of mechanical parts and assemblies' ) ;
#42 = CARTESIAN_POINT ( 'NONE',  ( 4.538925740496073362E-14, 0.4249999999999953260, 13.00000000000000000 ) ) ;
#43 = CIRCLE ( 'NONE', #136, 0.4249999999999968803 ) ;
#44 = CARTESIAN_POINT ( 'NONE',  ( 1.326762908760390423E-13, 0.3249999999999953482, 38.00000000000000000 ) ) ;
#45 = ADVANCED_FACE ( 'NONE', ( #36, #22 ), #76, .T. ) ;
#46 = DIRECTION ( 'NONE',  ( 3.491481338843133355E-15, -1.224646799147353207E-16, 1.000000000000000000 ) ) ;
#47 = CARTESIAN_POINT ( 'NONE',  ( 1.326762908760390423E-13, 2.437109646825448479E-33, 38.00000000000000000 ) ) ;
#48 = PERSON_AND_ORGANIZATION ( #106, #102 ) ;
#49 = AXIS2_PLACEMENT_3D ( 'NONE', #133, #199, #55 ) ;
#50 = CARTESIAN_POINT ( 'NONE',  ( 0.0000000000000000000, 0.0000000000000000000, 0.0000000000000000000 ) ) ;
#51 = CALENDAR_DATE ( 2021, 6, 10 ) ;
#52 = DESIGN_CONTEXT ( 'detailed design', #9, 'design' ) ;
#53 = ORIENTED_EDGE ( 'NONE', *, *, #145, .T. ) ;
#54 = DATE_AND_TIME ( #51, #143 ) ;
#55 = DIRECTION ( 'NONE',  ( 4.275831445896958607E-31, 1.000000000000000000, 1.224646799147353207E-16 ) ) ;
#56 = COORDINATED_UNIVERSAL_TIME_OFFSET ( 1, 0, .AHEAD. ) ;
#57 = APPROVAL_PERSON_ORGANIZATION ( #75, #91, #72 ) ;
#58 = CALENDAR_DATE ( 2021, 6, 10 ) ;
#59 = APPROVAL ( #146, 'UNSPECIFIED' ) ;
#60 = AXIS2_PLACEMENT_3D ( 'NONE', #127, #35, #124 ) ;
#61 = PRODUCT_DEFINITION ( 'UNKNOWN', '', #165, #52 ) ;
#62 = DIRECTION ( 'NONE',  ( -3.491481338843133355E-15, 1.224646799147353207E-16, -1.000000000000000000 ) ) ;
#63 = APPROVAL_PERSON_ORGANIZATION ( #48, #162, #101 ) ;
#64 = VERTEX_POINT ( 'NONE', #42 ) ;
#65 = EDGE_LOOP ( 'NONE', ( #53 ) ) ;
#66 = ORIENTED_EDGE ( 'NONE', *, *, #149, .T. ) ;
#67 = PERSON_AND_ORGANIZATION_ROLE ( 'design_supplier' ) ;
#68 =( NAMED_UNIT ( * ) SI_UNIT ( $, .STERADIAN. ) SOLID_ANGLE_UNIT ( ) );
#69 = APPROVAL_ROLE ( '' ) ;
#70 = LOCAL_TIME ( 13, 19, 47.00000000000000000, #197 ) ;
#71 = EDGE_LOOP ( 'NONE', ( #66 ) ) ;
#72 = APPROVAL_ROLE ( '' ) ;
#73 = CYLINDRICAL_SURFACE ( 'NONE', #49, 0.4249999999999961031 ) ;
#74 = CC_DESIGN_DATE_AND_TIME_ASSIGNMENT ( #132, #114, ( #61 ) ) ;
#75 = PERSON_AND_ORGANIZATION ( #106, #102 ) ;
#76 = CONICAL_SURFACE ( 'NONE', #139, 0.3250000000000000111, 0.7853981633974339571 ) ;
#77 = PRODUCT_RELATED_PRODUCT_CATEGORY ( 'detail', '', ( #79 ) ) ;
#78 = ADVANCED_FACE ( 'NONE', ( #87, #10 ), #73, .T. ) ;
#79 = PRODUCT ( '55482', '55482', '', ( #183 ) ) ;
#80 = VERTEX_POINT ( 'NONE', #44 ) ;
#81 = DIRECTION ( 'NONE',  ( -3.491481338843133355E-15, 1.224646799147353207E-16, -1.000000000000000000 ) ) ;
#82 = ADVANCED_FACE ( 'NONE', ( #117 ), #112, .F. ) ;
#83 = PLANE ( 'NONE',  #3 ) ;
#84 =( NAMED_UNIT ( * ) PLANE_ANGLE_UNIT ( ) SI_UNIT ( $, .RADIAN. ) );
#85 = APPROVAL_DATE_TIME ( #200, #162 ) ;
#86 = CARTESIAN_POINT ( 'NONE',  ( 1.326762908760390423E-13, -4.653657836759941941E-15, 38.00000000000000000 ) ) ;
#87 = FACE_OUTER_BOUND ( 'NONE', #176, .T. ) ;
#88 = COORDINATED_UNIVERSAL_TIME_OFFSET ( 1, 0, .AHEAD. ) ;
#89 = AXIS2_PLACEMENT_3D ( 'NONE', #175, #189, #154 ) ;
#90 = CARTESIAN_POINT ( 'NONE',  ( 4.538925740496073362E-14, -1.592040838891559095E-15, 13.00000000000000000 ) ) ;
#91 = APPROVAL ( #20, 'UNSPECIFIED' ) ;
#92 = DIRECTION ( 'NONE',  ( 0.0000000000000000000, 1.000000000000000000, 0.0000000000000000000 ) ) ;
#93 = DIRECTION ( 'NONE',  ( 1.000000000000000000, 0.0000000000000000000, 0.0000000000000000000 ) ) ;
#94 = DIRECTION ( 'NONE',  ( 4.275831445896958607E-31, 1.000000000000000000, 1.224646799147353207E-16 ) ) ;
#95 =( GEOMETRIC_REPRESENTATION_CONTEXT ( 3 ) GLOBAL_UNCERTAINTY_ASSIGNED_CONTEXT ( ( #32 ) ) GLOBAL_UNIT_ASSIGNED_CONTEXT ( ( #110, #84, #68 ) ) REPRESENTATION_CONTEXT ( 'NONE', 'WORKASPACE' ) );
#96 = DIRECTION ( 'NONE',  ( -4.275831445896958607E-31, -1.000000000000000000, -1.224646799147353207E-16 ) ) ;
#97 = EDGE_LOOP ( 'NONE', ( #100 ) ) ;
#98 = ADVANCED_FACE ( 'NONE', ( #193, #138 ), #150, .T. ) ;
#99 = FACE_OUTER_BOUND ( 'NONE', #115, .T. ) ;
#100 = ORIENTED_EDGE ( 'NONE', *, *, #118, .T. ) ;
#101 = APPROVAL_ROLE ( '' ) ;
#102 = ORGANIZATION ( 'UNSPECIFIED', 'UNSPECIFIED', '' ) ;
#103 = CC_DESIGN_PERSON_AND_ORGANIZATION_ASSIGNMENT ( #174, #40, ( #165 ) ) ;
#104 = CC_DESIGN_PERSON_AND_ORGANIZATION_ASSIGNMENT ( #119, #180, ( #61 ) ) ;
#105 = DIRECTION ( 'NONE',  ( 0.0000000000000000000, 0.0000000000000000000, 1.000000000000000000 ) ) ;
#106 = PERSON ( 'UNSPECIFIED', 'UNSPECIFIED', 'UNSPECIFIED', ('UNSPECIFIED'), ('UNSPECIFIED'), ('UNSPECIFIED') ) ;
#107 = DIRECTION ( 'NONE',  ( 3.491481338843133355E-15, -1.224646799147353207E-16, 1.000000000000000000 ) ) ;
#108 = ORIENTED_EDGE ( 'NONE', *, *, #38, .T. ) ;
#109 = EDGE_LOOP ( 'NONE', ( #141 ) ) ;
#110 =( LENGTH_UNIT ( ) NAMED_UNIT ( * ) SI_UNIT ( .MILLI., .METRE. ) );
#111 = CALENDAR_DATE ( 2021, 6, 10 ) ;
#112 = PLANE ( 'NONE',  #25 ) ;
#113 = EDGE_LOOP ( 'NONE', ( #108 ) ) ;
#114 = DATE_TIME_ROLE ( 'creation_date' ) ;
#115 = EDGE_LOOP ( 'NONE', ( #171 ) ) ;
#116 = DATE_TIME_ROLE ( 'classification_date' ) ;
#117 = FACE_OUTER_BOUND ( 'NONE', #71, .T. ) ;
#118 = EDGE_CURVE ( 'NONE', #21, #21, #194, .T. ) ;
#119 = PERSON_AND_ORGANIZATION ( #106, #102 ) ;
#120 = AXIS2_PLACEMENT_3D ( 'NONE', #47, #6, #94 ) ;
#121 = MANIFOLD_SOLID_BREP ( 'Corps-Déplacer/Copier1[1]', #173 ) ;
#122 = CC_DESIGN_APPROVAL ( #91, ( #61 ) ) ;
#123 = CARTESIAN_POINT ( 'NONE',  ( 6.919444068083252334E-16, -2.427014269154028118E-17, 0.1981807547158748184 ) ) ;
#124 = DIRECTION ( 'NONE',  ( -4.531599869146487326E-31, -1.000000000000000000, -1.275531967630019297E-16 ) ) ;
#125 = MANIFOLD_SOLID_BREP ( 'Corps-Déplacer/Copier1[2]', #39 ) ;
#126 = EDGE_LOOP ( 'NONE', ( #130 ) ) ;
#127 = CARTESIAN_POINT ( 'NONE',  ( 6.919444068083252334E-16, -2.427014269154028118E-17, 0.1981807547158748184 ) ) ;
#128 = PLANE ( 'NONE',  #120 ) ;
#129 = PERSON_AND_ORGANIZATION_ROLE ( 'classification_officer' ) ;
#130 = ORIENTED_EDGE ( 'NONE', *, *, #149, .F. ) ;
#131 = PERSON_AND_ORGANIZATION ( #106, #102 ) ;
#132 = DATE_AND_TIME ( #37, #34 ) ;
#133 = CARTESIAN_POINT ( 'NONE',  ( 0.0000000000000000000, 0.0000000000000000000, 0.0000000000000000000 ) ) ;
#134 = CC_DESIGN_PERSON_AND_ORGANIZATION_ASSIGNMENT ( #198, #129, ( #17 ) ) ;
#135 = ADVANCED_BREP_SHAPE_REPRESENTATION ( '55482', ( #121, #125, #186 ), #95 ) ;
#136 = AXIS2_PLACEMENT_3D ( 'NONE', #90, #166, #187 ) ;
#137 = CARTESIAN_POINT ( 'NONE',  ( 4.538925740496073362E-14, 3.186989538156400205E-33, 13.00000000000000000 ) ) ;
#138 = FACE_OUTER_BOUND ( 'NONE', #97, .T. ) ;
#139 = AXIS2_PLACEMENT_3D ( 'NONE', #86, #142, #92 ) ;
#140 = CC_DESIGN_PERSON_AND_ORGANIZATION_ASSIGNMENT ( #131, #11, ( #79 ) ) ;
#141 = ORIENTED_EDGE ( 'NONE', *, *, #164, .T. ) ;
#142 = DIRECTION ( 'NONE',  ( -3.491481338843133355E-15, 1.224646799147353207E-16, -1.000000000000000000 ) ) ;
#143 = LOCAL_TIME ( 13, 19, 47.00000000000000000, #7 ) ;
#144 = APPLICATION_PROTOCOL_DEFINITION ( 'international standard', 'config_control_design', 1994, #9 ) ;
#145 = EDGE_CURVE ( 'NONE', #191, #191, #163, .T. ) ;
#146 = APPROVAL_STATUS ( 'not_yet_approved' ) ;
#147 = APPROVAL_PERSON_ORGANIZATION ( #159, #59, #69 ) ;
#148 = LOCAL_TIME ( 13, 19, 47.00000000000000000, #88 ) ;
#149 = EDGE_CURVE ( 'NONE', #29, #29, #43, .T. ) ;
#150 = CYLINDRICAL_SURFACE ( 'NONE', #13, 0.4249999999999983791 ) ;
#151 = CARTESIAN_POINT ( 'NONE',  ( 4.538925740496073362E-14, -1.592040838891559095E-15, 13.00000000000000000 ) ) ;
#152 = CARTESIAN_POINT ( 'NONE',  ( 1.326762908760390423E-13, -4.653657836759941941E-15, 38.00000000000000000 ) ) ;
#153 = CARTESIAN_POINT ( 'NONE',  ( 4.538925740496073362E-14, 3.186989538156400205E-33, 13.00000000000000000 ) ) ;
#154 = DIRECTION ( 'NONE',  ( 0.0000000000000000000, 1.000000000000000000, 0.0000000000000000000 ) ) ;
#155 = EDGE_LOOP ( 'NONE', ( #18 ) ) ;
#156 = SECURITY_CLASSIFICATION_LEVEL ( 'unclassified' ) ;
#157 = DIRECTION ( 'NONE',  ( 0.0000000000000000000, 1.000000000000000000, 0.0000000000000000000 ) ) ;
#158 = SHAPE_DEFINITION_REPRESENTATION ( #169, #135 ) ;
#159 = PERSON_AND_ORGANIZATION ( #106, #102 ) ;
#160 = APPROVAL_DATE_TIME ( #177, #59 ) ;
#161 = PERSON_AND_ORGANIZATION ( #106, #102 ) ;
#162 = APPROVAL ( #202, 'UNSPECIFIED' ) ;
#163 = CIRCLE ( 'NONE', #28, 0.4249999999999953260 ) ;
#164 = EDGE_CURVE ( 'NONE', #64, #64, #8, .T. ) ;
#165 = PRODUCT_DEFINITION_FORMATION_WITH_SPECIFIED_SOURCE ( 'ANY', '', #79, .NOT_KNOWN. ) ;
#166 = DIRECTION ( 'NONE',  ( -3.491481338843133355E-15, 1.224646799147353207E-16, -1.000000000000000000 ) ) ;
#167 = CARTESIAN_POINT ( 'NONE',  ( 4.538925740496073362E-14, 0.4249999999999953260, 13.00000000000000000 ) ) ;
#168 = ORIENTED_EDGE ( 'NONE', *, *, #145, .F. ) ;
#169 = PRODUCT_DEFINITION_SHAPE ( 'NONE', 'NONE',  #61 ) ;
#170 = CARTESIAN_POINT ( 'NONE',  ( 0.0000000000000000000, 0.0000000000000000000, 0.0000000000000000000 ) ) ;
#171 = ORIENTED_EDGE ( 'NONE', *, *, #164, .F. ) ;
#172 = DIRECTION ( 'NONE',  ( 4.531599869146487326E-31, 1.000000000000000000, 1.275531967630019297E-16 ) ) ;
#173 = CLOSED_SHELL ( 'NONE', ( #82, #98, #45, #26 ) ) ;
#174 = PERSON_AND_ORGANIZATION ( #106, #102 ) ;
#175 = CARTESIAN_POINT ( 'NONE',  ( 1.323271427421547605E-13, -4.641411368768468584E-15, 37.89999999999999858 ) ) ;
#176 = EDGE_LOOP ( 'NONE', ( #168 ) ) ;
#177 = DATE_AND_TIME ( #58, #201 ) ;
#178 = COORDINATED_UNIVERSAL_TIME_OFFSET ( 1, 0, .AHEAD. ) ;
#179 = CC_DESIGN_APPROVAL ( #162, ( #17 ) ) ;
#180 = PERSON_AND_ORGANIZATION_ROLE ( 'creator' ) ;
#181 = ADVANCED_FACE ( 'NONE', ( #99 ), #83, .T. ) ;
#182 = DATE_AND_TIME ( #24, #70 ) ;
#183 = MECHANICAL_CONTEXT ( 'NONE', #41, 'mechanical' ) ;
#184 = CC_DESIGN_DATE_AND_TIME_ASSIGNMENT ( #182, #116, ( #17 ) ) ;
#185 = DIRECTION ( 'NONE',  ( -4.275831445896958607E-31, -1.000000000000000000, -1.224646799147353207E-16 ) ) ;
#186 = AXIS2_PLACEMENT_3D ( 'NONE', #170, #105, #93 ) ;
#187 = DIRECTION ( 'NONE',  ( 0.0000000000000000000, 1.000000000000000000, 0.0000000000000000000 ) ) ;
#188 = ADVANCED_FACE ( 'NONE', ( #19 ), #27, .T. ) ;
#189 = DIRECTION ( 'NONE',  ( -3.491481338843133355E-15, 1.224646799147353207E-16, -1.000000000000000000 ) ) ;
#190 = EDGE_LOOP ( 'NONE', ( #33 ) ) ;
#191 = VERTEX_POINT ( 'NONE', #2 ) ;
#192 = APPROVAL_DATE_TIME ( #54, #91 ) ;
#193 = FACE_OUTER_BOUND ( 'NONE', #126, .T. ) ;
#194 = CIRCLE ( 'NONE', #89, 0.4249999999999999889 ) ;
#195 = DIRECTION ( 'NONE',  ( 0.0000000000000000000, 1.000000000000000000, 0.0000000000000000000 ) ) ;
#196 = CC_DESIGN_SECURITY_CLASSIFICATION ( #17, ( #165 ) ) ;
#197 = COORDINATED_UNIVERSAL_TIME_OFFSET ( 1, 0, .AHEAD. ) ;
#198 = PERSON_AND_ORGANIZATION ( #106, #102 ) ;
#199 = DIRECTION ( 'NONE',  ( -3.491481338843133355E-15, 1.224646799147353207E-16, -1.000000000000000000 ) ) ;
#200 = DATE_AND_TIME ( #111, #148 ) ;
#201 = LOCAL_TIME ( 13, 19, 47.00000000000000000, #178 ) ;
#202 = APPROVAL_STATUS ( 'not_yet_approved' ) ;
#203 = CIRCLE ( 'NONE', #1, 0.3250000000000000111 ) ;
ENDSEC;
END-ISO-10303-21;
