ISO-10303-21;
HEADER;
FILE_DESCRIPTION (( 'STEP AP203' ),
    '1' );
FILE_NAME ('55475.step',
    '2021-10-06T11:19:46',
    ( '' ),
    ( '' ),
    'SwSTEP 2.0',
    'SolidWorks 2019',
    '' );
FILE_SCHEMA (( 'CONFIG_CONTROL_DESIGN' ));
ENDSEC;

DATA;
#1 = CYLINDRICAL_SURFACE ( 'NONE', #28, 0.3999999999999961919 ) ;
#2 = ADVANCED_FACE ( 'NONE', ( #87 ), #161, .F. ) ;
#3 = FACE_BOUND ( 'NONE', #18, .T. ) ;
#4 = CIRCLE ( 'NONE', #195, 0.3999999999999969136 ) ;
#5 = CARTESIAN_POINT ( 'NONE',  ( 1.323271427421547605E-13, -4.641411368768468584E-15, 37.89999999999999858 ) ) ;
#6 = FACE_OUTER_BOUND ( 'NONE', #177, .T. ) ;
#7 = ORIENTED_EDGE ( 'NONE', *, *, #79, .T. ) ;
#8 = CC_DESIGN_APPROVAL ( #83, ( #152 ) ) ;
#9 = DATE_AND_TIME ( #88, #53 ) ;
#10 = DATE_TIME_ROLE ( 'creation_date' ) ;
#11 = APPROVAL_STATUS ( 'not_yet_approved' ) ;
#12 = AXIS2_PLACEMENT_3D ( 'NONE', #37, #82, #142 ) ;
#13 = PERSON_AND_ORGANIZATION ( #116, #30 ) ;
#14 = PERSON_AND_ORGANIZATION ( #116, #30 ) ;
#15 = CLOSED_SHELL ( 'NONE', ( #31, #133, #199 ) ) ;
#16 = CC_DESIGN_APPROVAL ( #46, ( #127 ) ) ;
#17 = CARTESIAN_POINT ( 'NONE',  ( 4.538925740496073362E-14, 2.999519565323668688E-33, 13.00000000000000000 ) ) ;
#18 = EDGE_LOOP ( 'NONE', ( #7 ) ) ;
#19 = APPROVAL_PERSON_ORGANIZATION ( #13, #119, #42 ) ;
#20 = DIRECTION ( 'NONE',  ( 3.491481338843133355E-15, -1.224646799147353207E-16, 1.000000000000000000 ) ) ;
#21 = ORIENTED_EDGE ( 'NONE', *, *, #171, .F. ) ;
#22 = COORDINATED_UNIVERSAL_TIME_OFFSET ( 1, 0, .AHEAD. ) ;
#23 = AXIS2_PLACEMENT_3D ( 'NONE', #17, #20, #131 ) ;
#24 = APPROVAL_DATE_TIME ( #132, #46 ) ;
#25 = CALENDAR_DATE ( 2021, 6, 10 ) ;
#26 = APPROVAL_STATUS ( 'not_yet_approved' ) ;
#27 = CARTESIAN_POINT ( 'NONE',  ( 0.0000000000000000000, 0.0000000000000000000, 0.0000000000000000000 ) ) ;
#28 = AXIS2_PLACEMENT_3D ( 'NONE', #52, #174, #32 ) ;
#29 =( NAMED_UNIT ( * ) SI_UNIT ( $, .STERADIAN. ) SOLID_ANGLE_UNIT ( ) );
#30 = ORGANIZATION ( 'UNSPECIFIED', 'UNSPECIFIED', '' ) ;
#31 = ADVANCED_FACE ( 'NONE', ( #70 ), #57, .T. ) ;
#32 = DIRECTION ( 'NONE',  ( 4.275831445896958607E-31, 1.000000000000000000, 1.224646799147353207E-16 ) ) ;
#33 = AXIS2_PLACEMENT_3D ( 'NONE', #66, #178, #188 ) ;
#34 = LOCAL_TIME ( 13, 19, 46.00000000000000000, #107 ) ;
#35 = ORIENTED_EDGE ( 'NONE', *, *, #176, .T. ) ;
#36 = DIRECTION ( 'NONE',  ( 0.0000000000000000000, 1.000000000000000000, 0.0000000000000000000 ) ) ;
#37 = CARTESIAN_POINT ( 'NONE',  ( 1.326762908760390423E-13, -4.653657836759941941E-15, 38.00000000000000000 ) ) ;
#38 = AXIS2_PLACEMENT_3D ( 'NONE', #27, #91, #103 ) ;
#39 = LOCAL_TIME ( 13, 19, 46.00000000000000000, #162 ) ;
#40 = DIRECTION ( 'NONE',  ( -4.814824860968145685E-31, -1.000000000000000000, -1.355252715606896320E-16 ) ) ;
#41 = VERTEX_POINT ( 'NONE', #192 ) ;
#42 = APPROVAL_ROLE ( '' ) ;
#43 = AXIS2_PLACEMENT_3D ( 'NONE', #160, #51, #145 ) ;
#44 = VERTEX_POINT ( 'NONE', #45 ) ;
#45 = CARTESIAN_POINT ( 'NONE',  ( 1.323271427421547605E-13, 0.3999999999999953593, 37.89999999999999858 ) ) ;
#46 = APPROVAL ( #26, 'UNSPECIFIED' ) ;
#47 = CONICAL_SURFACE ( 'NONE', #12, 0.3000000000000000444, 0.7853981633974339571 ) ;
#48 = DIRECTION ( 'NONE',  ( 4.275831445896958607E-31, 1.000000000000000000, 1.224646799147353207E-16 ) ) ;
#49 = ORIENTED_EDGE ( 'NONE', *, *, #100, .F. ) ;
#50 = FACE_OUTER_BOUND ( 'NONE', #130, .T. ) ;
#51 = DIRECTION ( 'NONE',  ( -3.491481338843133355E-15, 1.224646799147353207E-16, -1.000000000000000000 ) ) ;
#52 = CARTESIAN_POINT ( 'NONE',  ( 0.0000000000000000000, 0.0000000000000000000, 0.0000000000000000000 ) ) ;
#53 = LOCAL_TIME ( 13, 19, 46.00000000000000000, #22 ) ;
#54 = CC_DESIGN_PERSON_AND_ORGANIZATION_ASSIGNMENT ( #182, #198, ( #152 ) ) ;
#55 = PERSON_AND_ORGANIZATION ( #116, #30 ) ;
#56 = PERSON_AND_ORGANIZATION ( #116, #30 ) ;
#57 = CONICAL_SURFACE ( 'NONE', #78, 0.3999999999999953593, 1.134464013796309123 ) ;
#58 = VERTEX_POINT ( 'NONE', #197 ) ;
#59 = ADVANCED_FACE ( 'NONE', ( #179, #148 ), #98, .T. ) ;
#60 = PERSON_AND_ORGANIZATION ( #116, #30 ) ;
#61 = CC_DESIGN_SECURITY_CLASSIFICATION ( #127, ( #152 ) ) ;
#62 = ORIENTED_EDGE ( 'NONE', *, *, #79, .F. ) ;
#63 = AXIS2_PLACEMENT_3D ( 'NONE', #65, #146, #36 ) ;
#64 = CC_DESIGN_PERSON_AND_ORGANIZATION_ASSIGNMENT ( #102, #105, ( #168 ) ) ;
#65 = CARTESIAN_POINT ( 'NONE',  ( 4.538925740496073362E-14, -1.592040838891559095E-15, 13.00000000000000000 ) ) ;
#66 = CARTESIAN_POINT ( 'NONE',  ( 6.512417946431292660E-16, -2.284248723909672399E-17, 0.1865230632619997442 ) ) ;
#67 = AXIS2_PLACEMENT_3D ( 'NONE', #5, #68, #136 ) ;
#68 = DIRECTION ( 'NONE',  ( -3.491481338843133355E-15, 1.224646799147353207E-16, -1.000000000000000000 ) ) ;
#69 = CALENDAR_DATE ( 2021, 6, 10 ) ;
#70 = FACE_OUTER_BOUND ( 'NONE', #81, .T. ) ;
#71 = CALENDAR_DATE ( 2021, 6, 10 ) ;
#72 = PERSON_AND_ORGANIZATION_ROLE ( 'creator' ) ;
#73 = COORDINATED_UNIVERSAL_TIME_OFFSET ( 1, 0, .AHEAD. ) ;
#74 = FACE_OUTER_BOUND ( 'NONE', #140, .T. ) ;
#75 = APPROVAL_STATUS ( 'not_yet_approved' ) ;
#76 = PERSON_AND_ORGANIZATION_ROLE ( 'design_supplier' ) ;
#77 = CC_DESIGN_PERSON_AND_ORGANIZATION_ASSIGNMENT ( #14, #76, ( #152 ) ) ;
#78 = AXIS2_PLACEMENT_3D ( 'NONE', #141, #85, #40 ) ;
#79 = EDGE_CURVE ( 'NONE', #169, #169, #104, .T. ) ;
#80 = APPROVAL_PERSON_ORGANIZATION ( #56, #83, #124 ) ;
#81 = EDGE_LOOP ( 'NONE', ( #35 ) ) ;
#82 = DIRECTION ( 'NONE',  ( -3.491481338843133355E-15, 1.224646799147353207E-16, -1.000000000000000000 ) ) ;
#83 = APPROVAL ( #75, 'UNSPECIFIED' ) ;
#84 = DIRECTION ( 'NONE',  ( 0.0000000000000000000, 1.000000000000000000, 0.0000000000000000000 ) ) ;
#85 = DIRECTION ( 'NONE',  ( 3.491481338843133355E-15, -1.224646799147353207E-16, 1.000000000000000000 ) ) ;
#86 = APPROVAL_ROLE ( '' ) ;
#87 = FACE_OUTER_BOUND ( 'NONE', #185, .T. ) ;
#88 = CALENDAR_DATE ( 2021, 6, 10 ) ;
#89 = CARTESIAN_POINT ( 'NONE',  ( 4.538925740496073362E-14, 2.999519565323668688E-33, 13.00000000000000000 ) ) ;
#90 = DATE_AND_TIME ( #25, #94 ) ;
#91 = DIRECTION ( 'NONE',  ( 0.0000000000000000000, 0.0000000000000000000, 1.000000000000000000 ) ) ;
#92 = MANIFOLD_SOLID_BREP ( 'Corps-Déplacer/Copier1[1]', #113 ) ;
#93 = MANIFOLD_SOLID_BREP ( 'Corps-Déplacer/Copier1[2]', #15 ) ;
#94 = LOCAL_TIME ( 13, 19, 46.00000000000000000, #73 ) ;
#95 = ORIENTED_EDGE ( 'NONE', *, *, #193, .F. ) ;
#96 = ORIENTED_EDGE ( 'NONE', *, *, #171, .T. ) ;
#97 = PLANE ( 'NONE',  #43 ) ;
#98 = CYLINDRICAL_SURFACE ( 'NONE', #200, 0.3999999999999984679 ) ;
#99 = ORIENTED_EDGE ( 'NONE', *, *, #193, .T. ) ;
#100 = EDGE_CURVE ( 'NONE', #137, #137, #191, .T. ) ;
#101 = DATE_AND_TIME ( #69, #34 ) ;
#102 = PERSON_AND_ORGANIZATION ( #116, #30 ) ;
#103 = DIRECTION ( 'NONE',  ( 1.000000000000000000, 0.0000000000000000000, 0.0000000000000000000 ) ) ;
#104 = CIRCLE ( 'NONE', #122, 0.3000000000000000444 ) ;
#105 = PERSON_AND_ORGANIZATION_ROLE ( 'design_owner' ) ;
#106 = PRODUCT_DEFINITION ( 'UNKNOWN', '', #152, #201 ) ;
#107 = COORDINATED_UNIVERSAL_TIME_OFFSET ( 1, 0, .AHEAD. ) ;
#108 =( NAMED_UNIT ( * ) PLANE_ANGLE_UNIT ( ) SI_UNIT ( $, .RADIAN. ) );
#109 = UNCERTAINTY_MEASURE_WITH_UNIT (LENGTH_MEASURE( 1.000000000000000082E-05 ), #123, 'distance_accuracy_value', 'NONE');
#110 = CIRCLE ( 'NONE', #33, 0.3999999999999953593 ) ;
#111 = EDGE_LOOP ( 'NONE', ( #95 ) ) ;
#112 = CARTESIAN_POINT ( 'NONE',  ( 1.326762908760390423E-13, -4.653657836759941941E-15, 38.00000000000000000 ) ) ;
#113 = CLOSED_SHELL ( 'NONE', ( #2, #59, #173, #184 ) ) ;
#114 = DIRECTION ( 'NONE',  ( -3.491481338843133355E-15, 1.224646799147353207E-16, -1.000000000000000000 ) ) ;
#115 = FACE_OUTER_BOUND ( 'NONE', #190, .T. ) ;
#116 = PERSON ( 'UNSPECIFIED', 'UNSPECIFIED', 'UNSPECIFIED', ('UNSPECIFIED'), ('UNSPECIFIED'), ('UNSPECIFIED') ) ;
#117 = EDGE_LOOP ( 'NONE', ( #99 ) ) ;
#118 = CARTESIAN_POINT ( 'NONE',  ( 0.0000000000000000000, 0.0000000000000000000, 0.0000000000000000000 ) ) ;
#119 = APPROVAL ( #11, 'UNSPECIFIED' ) ;
#120 = CARTESIAN_POINT ( 'NONE',  ( 1.326762908760390423E-13, 0.2999999999999953815, 38.00000000000000000 ) ) ;
#121 = PLANE ( 'NONE',  #170 ) ;
#122 = AXIS2_PLACEMENT_3D ( 'NONE', #112, #134, #84 ) ;
#123 =( LENGTH_UNIT ( ) NAMED_UNIT ( * ) SI_UNIT ( .MILLI., .METRE. ) );
#124 = APPROVAL_ROLE ( '' ) ;
#125 = PERSON_AND_ORGANIZATION_ROLE ( 'classification_officer' ) ;
#126 = PRODUCT_RELATED_PRODUCT_CATEGORY ( 'detail', '', ( #168 ) ) ;
#127 = SECURITY_CLASSIFICATION ( '', '', #139 ) ;
#128 = APPROVAL_PERSON_ORGANIZATION ( #166, #46, #86 ) ;
#129 = DIRECTION ( 'NONE',  ( -3.491481338843133355E-15, 1.224646799147353207E-16, -1.000000000000000000 ) ) ;
#130 = EDGE_LOOP ( 'NONE', ( #163 ) ) ;
#131 = DIRECTION ( 'NONE',  ( -4.275831445896958607E-31, -1.000000000000000000, -1.224646799147353207E-16 ) ) ;
#132 = DATE_AND_TIME ( #71, #39 ) ;
#133 = ADVANCED_FACE ( 'NONE', ( #6, #50 ), #1, .T. ) ;
#134 = DIRECTION ( 'NONE',  ( -3.491481338843133355E-15, 1.224646799147353207E-16, -1.000000000000000000 ) ) ;
#135 = SHAPE_DEFINITION_REPRESENTATION ( #157, #143 ) ;
#136 = DIRECTION ( 'NONE',  ( 0.0000000000000000000, 1.000000000000000000, 0.0000000000000000000 ) ) ;
#137 = VERTEX_POINT ( 'NONE', #167 ) ;
#138 = DATE_AND_TIME ( #150, #144 ) ;
#139 = SECURITY_CLASSIFICATION_LEVEL ( 'unclassified' ) ;
#140 = EDGE_LOOP ( 'NONE', ( #49 ) ) ;
#141 = CARTESIAN_POINT ( 'NONE',  ( 6.512417946431292660E-16, -2.284248723909672399E-17, 0.1865230632619997442 ) ) ;
#142 = DIRECTION ( 'NONE',  ( 0.0000000000000000000, 1.000000000000000000, 0.0000000000000000000 ) ) ;
#143 = ADVANCED_BREP_SHAPE_REPRESENTATION ( '55475', ( #92, #93, #38 ), #181 ) ;
#144 = LOCAL_TIME ( 13, 19, 46.00000000000000000, #183 ) ;
#145 = DIRECTION ( 'NONE',  ( 4.275831445896958607E-31, 1.000000000000000000, 1.224646799147353207E-16 ) ) ;
#146 = DIRECTION ( 'NONE',  ( -3.491481338843133355E-15, 1.224646799147353207E-16, -1.000000000000000000 ) ) ;
#147 = DATE_TIME_ROLE ( 'classification_date' ) ;
#148 = FACE_OUTER_BOUND ( 'NONE', #117, .T. ) ;
#149 = CC_DESIGN_PERSON_AND_ORGANIZATION_ASSIGNMENT ( #55, #72, ( #106 ) ) ;
#150 = CALENDAR_DATE ( 2021, 6, 10 ) ;
#151 = DIRECTION ( 'NONE',  ( 3.491481338843133355E-15, -1.224646799147353207E-16, 1.000000000000000000 ) ) ;
#152 = PRODUCT_DEFINITION_FORMATION_WITH_SPECIFIED_SOURCE ( 'ANY', '', #168, .NOT_KNOWN. ) ;
#153 = CC_DESIGN_PERSON_AND_ORGANIZATION_ASSIGNMENT ( #60, #125, ( #127 ) ) ;
#154 = MECHANICAL_CONTEXT ( 'NONE', #202, 'mechanical' ) ;
#155 = CIRCLE ( 'NONE', #67, 0.4000000000000000222 ) ;
#156 = CC_DESIGN_DATE_AND_TIME_ASSIGNMENT ( #101, #147, ( #127 ) ) ;
#157 = PRODUCT_DEFINITION_SHAPE ( 'NONE', 'NONE',  #106 ) ;
#158 = APPLICATION_CONTEXT ( 'configuration controlled 3d designs of mechanical parts and assemblies' ) ;
#159 = FACE_OUTER_BOUND ( 'NONE', #111, .T. ) ;
#160 = CARTESIAN_POINT ( 'NONE',  ( 1.326762908760390423E-13, 2.249639673992716963E-33, 38.00000000000000000 ) ) ;
#161 = PLANE ( 'NONE',  #23 ) ;
#162 = COORDINATED_UNIVERSAL_TIME_OFFSET ( 1, 0, .AHEAD. ) ;
#163 = ORIENTED_EDGE ( 'NONE', *, *, #100, .T. ) ;
#164 = APPROVAL_DATE_TIME ( #138, #119 ) ;
#165 = APPLICATION_PROTOCOL_DEFINITION ( 'international standard', 'config_control_design', 1994, #158 ) ;
#166 = PERSON_AND_ORGANIZATION ( #116, #30 ) ;
#167 = CARTESIAN_POINT ( 'NONE',  ( 4.538925740496073362E-14, 0.3999999999999953593, 13.00000000000000000 ) ) ;
#168 = PRODUCT ( '55475', '55475', '', ( #154 ) ) ;
#169 = VERTEX_POINT ( 'NONE', #120 ) ;
#170 = AXIS2_PLACEMENT_3D ( 'NONE', #89, #151, #180 ) ;
#171 = EDGE_CURVE ( 'NONE', #58, #58, #4, .T. ) ;
#172 = CC_DESIGN_APPROVAL ( #119, ( #106 ) ) ;
#173 = ADVANCED_FACE ( 'NONE', ( #159, #3 ), #47, .T. ) ;
#174 = DIRECTION ( 'NONE',  ( -3.491481338843133355E-15, 1.224646799147353207E-16, -1.000000000000000000 ) ) ;
#175 = DIRECTION ( 'NONE',  ( 0.0000000000000000000, 1.000000000000000000, 0.0000000000000000000 ) ) ;
#176 = EDGE_CURVE ( 'NONE', #41, #41, #110, .T. ) ;
#177 = EDGE_LOOP ( 'NONE', ( #203 ) ) ;
#178 = DIRECTION ( 'NONE',  ( -3.491481338843133355E-15, 1.224646799147353207E-16, -1.000000000000000000 ) ) ;
#179 = FACE_OUTER_BOUND ( 'NONE', #186, .T. ) ;
#180 = DIRECTION ( 'NONE',  ( -4.275831445896958607E-31, -1.000000000000000000, -1.224646799147353207E-16 ) ) ;
#181 =( GEOMETRIC_REPRESENTATION_CONTEXT ( 3 ) GLOBAL_UNCERTAINTY_ASSIGNED_CONTEXT ( ( #109 ) ) GLOBAL_UNIT_ASSIGNED_CONTEXT ( ( #123, #108, #29 ) ) REPRESENTATION_CONTEXT ( 'NONE', 'WORKASPACE' ) );
#182 = PERSON_AND_ORGANIZATION ( #116, #30 ) ;
#183 = COORDINATED_UNIVERSAL_TIME_OFFSET ( 1, 0, .AHEAD. ) ;
#184 = ADVANCED_FACE ( 'NONE', ( #115 ), #97, .F. ) ;
#185 = EDGE_LOOP ( 'NONE', ( #96 ) ) ;
#186 = EDGE_LOOP ( 'NONE', ( #21 ) ) ;
#187 = CC_DESIGN_DATE_AND_TIME_ASSIGNMENT ( #9, #10, ( #106 ) ) ;
#188 = DIRECTION ( 'NONE',  ( 4.814824860968145685E-31, 1.000000000000000000, 1.355252715606896320E-16 ) ) ;
#189 = CARTESIAN_POINT ( 'NONE',  ( 4.538925740496073362E-14, -1.592040838891559095E-15, 13.00000000000000000 ) ) ;
#190 = EDGE_LOOP ( 'NONE', ( #62 ) ) ;
#191 = CIRCLE ( 'NONE', #63, 0.3999999999999969136 ) ;
#192 = CARTESIAN_POINT ( 'NONE',  ( 6.512417946431294633E-16, 0.3999999999999953593, 0.1865230632619997997 ) ) ;
#193 = EDGE_CURVE ( 'NONE', #44, #44, #155, .T. ) ;
#194 = APPLICATION_PROTOCOL_DEFINITION ( 'international standard', 'config_control_design', 1994, #202 ) ;
#195 = AXIS2_PLACEMENT_3D ( 'NONE', #189, #114, #175 ) ;
#196 = APPROVAL_DATE_TIME ( #90, #83 ) ;
#197 = CARTESIAN_POINT ( 'NONE',  ( 4.538925740496073362E-14, 0.3999999999999953593, 13.00000000000000000 ) ) ;
#198 = PERSON_AND_ORGANIZATION_ROLE ( 'creator' ) ;
#199 = ADVANCED_FACE ( 'NONE', ( #74 ), #121, .T. ) ;
#200 = AXIS2_PLACEMENT_3D ( 'NONE', #118, #129, #48 ) ;
#201 = DESIGN_CONTEXT ( 'detailed design', #158, 'design' ) ;
#202 = APPLICATION_CONTEXT ( 'configuration controlled 3d designs of mechanical parts and assemblies' ) ;
#203 = ORIENTED_EDGE ( 'NONE', *, *, #176, .F. ) ;
ENDSEC;
END-ISO-10303-21;
