ISO-10303-21;
HEADER;
FILE_DESCRIPTION (( 'STEP AP203' ),
    '1' );
FILE_NAME ('55473.step',
    '2021-10-06T11:19:45',
    ( '' ),
    ( '' ),
    'SwSTEP 2.0',
    'SolidWorks 2019',
    '' );
FILE_SCHEMA (( 'CONFIG_CONTROL_DESIGN' ));
ENDSEC;

DATA;
#1 = DATE_AND_TIME ( #99, #104 ) ;
#2 = PRODUCT_RELATED_PRODUCT_CATEGORY ( 'detail', '', ( #169 ) ) ;
#3 = LOCAL_TIME ( 13, 19, 45.00000000000000000, #97 ) ;
#4 = DIRECTION ( 'NONE',  ( 0.0000000000000000000, 0.0000000000000000000, 1.000000000000000000 ) ) ;
#5 = DATE_AND_TIME ( #181, #194 ) ;
#6 = AXIS2_PLACEMENT_3D ( 'NONE', #53, #139, #196 ) ;
#7 = ORIENTED_EDGE ( 'NONE', *, *, #165, .T. ) ;
#8 = AXIS2_PLACEMENT_3D ( 'NONE', #176, #141, #199 ) ;
#9 = FACE_OUTER_BOUND ( 'NONE', #100, .T. ) ;
#10 = DIRECTION ( 'NONE',  ( -5.135813185032692584E-31, -1.000000000000000000, -1.445602896647357159E-16 ) ) ;
#11 =( GEOMETRIC_REPRESENTATION_CONTEXT ( 3 ) GLOBAL_UNCERTAINTY_ASSIGNED_CONTEXT ( ( #22 ) ) GLOBAL_UNIT_ASSIGNED_CONTEXT ( ( #113, #80, #26 ) ) REPRESENTATION_CONTEXT ( 'NONE', 'WORKASPACE' ) );
#12 = CC_DESIGN_SECURITY_CLASSIFICATION ( #55, ( #38 ) ) ;
#13 = DIRECTION ( 'NONE',  ( -3.491481338843133355E-15, 1.224646799147353207E-16, -1.000000000000000000 ) ) ;
#14 = CARTESIAN_POINT ( 'NONE',  ( 0.0000000000000000000, 0.0000000000000000000, 0.0000000000000000000 ) ) ;
#15 = DIRECTION ( 'NONE',  ( -3.491481338843133355E-15, 1.224646799147353207E-16, -1.000000000000000000 ) ) ;
#16 = APPROVAL_PERSON_ORGANIZATION ( #31, #73, #65 ) ;
#17 = DATE_TIME_ROLE ( 'classification_date' ) ;
#18 = PERSON_AND_ORGANIZATION ( #151, #146 ) ;
#19 = CIRCLE ( 'NONE', #61, 0.3750000000000000000 ) ;
#20 = SHAPE_DEFINITION_REPRESENTATION ( #68, #183 ) ;
#21 = EDGE_LOOP ( 'NONE', ( #170 ) ) ;
#22 = UNCERTAINTY_MEASURE_WITH_UNIT (LENGTH_MEASURE( 1.000000000000000082E-05 ), #113, 'distance_accuracy_value', 'NONE');
#23 = CARTESIAN_POINT ( 'NONE',  ( 0.0000000000000000000, 0.0000000000000000000, 0.0000000000000000000 ) ) ;
#24 = CLOSED_SHELL ( 'NONE', ( #28, #202, #67, #116 ) ) ;
#25 = DIRECTION ( 'NONE',  ( 4.275831445896958607E-31, 1.000000000000000000, 1.224646799147353207E-16 ) ) ;
#26 =( NAMED_UNIT ( * ) SI_UNIT ( $, .STERADIAN. ) SOLID_ANGLE_UNIT ( ) );
#27 = AXIS2_PLACEMENT_3D ( 'NONE', #83, #173, #43 ) ;
#28 = ADVANCED_FACE ( 'NONE', ( #108 ), #195, .F. ) ;
#29 = CARTESIAN_POINT ( 'NONE',  ( 1.326762908760390423E-13, 2.062169701159984420E-33, 38.00000000000000000 ) ) ;
#30 = CIRCLE ( 'NONE', #171, 0.3749999999999953371 ) ;
#31 = PERSON_AND_ORGANIZATION ( #151, #146 ) ;
#32 = DATE_AND_TIME ( #130, #3 ) ;
#33 = PERSON_AND_ORGANIZATION ( #151, #146 ) ;
#34 = ADVANCED_FACE ( 'NONE', ( #106, #193 ), #92, .T. ) ;
#35 = AXIS2_PLACEMENT_3D ( 'NONE', #120, #172, #192 ) ;
#36 = PERSON_AND_ORGANIZATION_ROLE ( 'creator' ) ;
#37 = ADVANCED_FACE ( 'NONE', ( #9 ), #75, .T. ) ;
#38 = PRODUCT_DEFINITION_FORMATION_WITH_SPECIFIED_SOURCE ( 'ANY', '', #169, .NOT_KNOWN. ) ;
#39 = ORIENTED_EDGE ( 'NONE', *, *, #105, .F. ) ;
#40 = EDGE_LOOP ( 'NONE', ( #107 ) ) ;
#41 = ORIENTED_EDGE ( 'NONE', *, *, #81, .T. ) ;
#42 = AXIS2_PLACEMENT_3D ( 'NONE', #14, #13, #93 ) ;
#43 = DIRECTION ( 'NONE',  ( 0.0000000000000000000, 1.000000000000000000, 0.0000000000000000000 ) ) ;
#44 = DIRECTION ( 'NONE',  ( 0.0000000000000000000, 1.000000000000000000, 0.0000000000000000000 ) ) ;
#45 = APPROVAL ( #127, 'UNSPECIFIED' ) ;
#46 = CARTESIAN_POINT ( 'NONE',  ( 6.105391824779331014E-16, -2.141483178665316063E-17, 0.1748653718081245867 ) ) ;
#47 = FACE_OUTER_BOUND ( 'NONE', #152, .T. ) ;
#48 = APPROVAL_ROLE ( '' ) ;
#49 = PERSON_AND_ORGANIZATION ( #151, #146 ) ;
#50 = APPLICATION_PROTOCOL_DEFINITION ( 'international standard', 'config_control_design', 1994, #87 ) ;
#51 = PERSON_AND_ORGANIZATION_ROLE ( 'creator' ) ;
#52 = AXIS2_PLACEMENT_3D ( 'NONE', #23, #74, #154 ) ;
#53 = CARTESIAN_POINT ( 'NONE',  ( 4.538925740496073362E-14, 2.812049592490936145E-33, 13.00000000000000000 ) ) ;
#54 = ORIENTED_EDGE ( 'NONE', *, *, #135, .F. ) ;
#55 = SECURITY_CLASSIFICATION ( '', '', #191 ) ;
#56 = FACE_OUTER_BOUND ( 'NONE', #150, .T. ) ;
#57 = AXIS2_PLACEMENT_3D ( 'NONE', #46, #142, #10 ) ;
#58 = CC_DESIGN_PERSON_AND_ORGANIZATION_ASSIGNMENT ( #33, #51, ( #38 ) ) ;
#59 = VERTEX_POINT ( 'NONE', #62 ) ;
#60 = VERTEX_POINT ( 'NONE', #95 ) ;
#61 = AXIS2_PLACEMENT_3D ( 'NONE', #96, #174, #158 ) ;
#62 = CARTESIAN_POINT ( 'NONE',  ( 1.326762908760390423E-13, 0.2749999999999953593, 38.00000000000000000 ) ) ;
#63 = DIRECTION ( 'NONE',  ( 0.0000000000000000000, 1.000000000000000000, 0.0000000000000000000 ) ) ;
#64 = PERSON_AND_ORGANIZATION_ROLE ( 'design_supplier' ) ;
#65 = APPROVAL_ROLE ( '' ) ;
#66 = CC_DESIGN_APPROVAL ( #78, ( #38 ) ) ;
#67 = ADVANCED_FACE ( 'NONE', ( #56, #111 ), #102, .T. ) ;
#68 = PRODUCT_DEFINITION_SHAPE ( 'NONE', 'NONE',  #149 ) ;
#69 = CALENDAR_DATE ( 2021, 6, 10 ) ;
#70 = ORIENTED_EDGE ( 'NONE', *, *, #105, .T. ) ;
#71 = ORIENTED_EDGE ( 'NONE', *, *, #167, .T. ) ;
#72 = EDGE_LOOP ( 'NONE', ( #121 ) ) ;
#73 = APPROVAL ( #190, 'UNSPECIFIED' ) ;
#74 = DIRECTION ( 'NONE',  ( -3.491481338843133355E-15, 1.224646799147353207E-16, -1.000000000000000000 ) ) ;
#75 = PLANE ( 'NONE',  #6 ) ;
#76 = APPLICATION_CONTEXT ( 'configuration controlled 3d designs of mechanical parts and assemblies' ) ;
#77 = VERTEX_POINT ( 'NONE', #123 ) ;
#78 = APPROVAL ( #84, 'UNSPECIFIED' ) ;
#79 = DESIGN_CONTEXT ( 'detailed design', #87, 'design' ) ;
#80 =( NAMED_UNIT ( * ) PLANE_ANGLE_UNIT ( ) SI_UNIT ( $, .RADIAN. ) );
#81 = EDGE_CURVE ( 'NONE', #110, #110, #122, .T. ) ;
#82 = AXIS2_PLACEMENT_3D ( 'NONE', #29, #15, #25 ) ;
#83 = CARTESIAN_POINT ( 'NONE',  ( 4.538925740496073362E-14, -1.592040838891559095E-15, 13.00000000000000000 ) ) ;
#84 = APPROVAL_STATUS ( 'not_yet_approved' ) ;
#85 = CC_DESIGN_PERSON_AND_ORGANIZATION_ASSIGNMENT ( #162, #179, ( #55 ) ) ;
#86 = COORDINATED_UNIVERSAL_TIME_OFFSET ( 1, 0, .AHEAD. ) ;
#87 = APPLICATION_CONTEXT ( 'configuration controlled 3d designs of mechanical parts and assemblies' ) ;
#88 = EDGE_LOOP ( 'NONE', ( #41 ) ) ;
#89 = CC_DESIGN_PERSON_AND_ORGANIZATION_ASSIGNMENT ( #144, #36, ( #149 ) ) ;
#90 = MANIFOLD_SOLID_BREP ( 'Corps-Déplacer/Copier1[1]', #24 ) ;
#91 = EDGE_LOOP ( 'NONE', ( #70 ) ) ;
#92 = CYLINDRICAL_SURFACE ( 'NONE', #52, 0.3749999999999961142 ) ;
#93 = DIRECTION ( 'NONE',  ( 4.275831445896958607E-31, 1.000000000000000000, 1.224646799147353207E-16 ) ) ;
#94 = CARTESIAN_POINT ( 'NONE',  ( 4.538925740496073362E-14, 0.3749999999999953371, 13.00000000000000000 ) ) ;
#95 = CARTESIAN_POINT ( 'NONE',  ( 1.323271427421547605E-13, 0.3749999999999953371, 37.89999999999999858 ) ) ;
#96 = CARTESIAN_POINT ( 'NONE',  ( 1.323271427421547605E-13, -4.641411368768468584E-15, 37.89999999999999858 ) ) ;
#97 = COORDINATED_UNIVERSAL_TIME_OFFSET ( 1, 0, .AHEAD. ) ;
#98 = DATE_TIME_ROLE ( 'creation_date' ) ;
#99 = CALENDAR_DATE ( 2021, 6, 10 ) ;
#100 = EDGE_LOOP ( 'NONE', ( #137 ) ) ;
#101 = MECHANICAL_CONTEXT ( 'NONE', #76, 'mechanical' ) ;
#102 = CONICAL_SURFACE ( 'NONE', #112, 0.2750000000000000222, 0.7853981633974339571 ) ;
#103 = APPROVAL_ROLE ( '' ) ;
#104 = LOCAL_TIME ( 13, 19, 45.00000000000000000, #115 ) ;
#105 = EDGE_CURVE ( 'NONE', #59, #59, #198, .T. ) ;
#106 = FACE_OUTER_BOUND ( 'NONE', #21, .T. ) ;
#107 = ORIENTED_EDGE ( 'NONE', *, *, #165, .F. ) ;
#108 = FACE_OUTER_BOUND ( 'NONE', #134, .T. ) ;
#109 = CONICAL_SURFACE ( 'NONE', #57, 0.3749999999999953371, 1.134464013796309123 ) ;
#110 = VERTEX_POINT ( 'NONE', #94 ) ;
#111 = FACE_BOUND ( 'NONE', #91, .T. ) ;
#112 = AXIS2_PLACEMENT_3D ( 'NONE', #175, #184, #63 ) ;
#113 =( LENGTH_UNIT ( ) NAMED_UNIT ( * ) SI_UNIT ( .MILLI., .METRE. ) );
#114 = DIRECTION ( 'NONE',  ( -3.491481338843133355E-15, 1.224646799147353207E-16, -1.000000000000000000 ) ) ;
#115 = COORDINATED_UNIVERSAL_TIME_OFFSET ( 1, 0, .AHEAD. ) ;
#116 = ADVANCED_FACE ( 'NONE', ( #47 ), #185, .F. ) ;
#117 = COORDINATED_UNIVERSAL_TIME_OFFSET ( 1, 0, .AHEAD. ) ;
#118 = CC_DESIGN_PERSON_AND_ORGANIZATION_ASSIGNMENT ( #49, #182, ( #169 ) ) ;
#119 = LOCAL_TIME ( 13, 19, 45.00000000000000000, #145 ) ;
#120 = CARTESIAN_POINT ( 'NONE',  ( 4.538925740496073362E-14, 2.812049592490936145E-33, 13.00000000000000000 ) ) ;
#121 = ORIENTED_EDGE ( 'NONE', *, *, #135, .T. ) ;
#122 = CIRCLE ( 'NONE', #8, 0.3749999999999968914 ) ;
#123 = CARTESIAN_POINT ( 'NONE',  ( 4.538925740496073362E-14, 0.3749999999999953371, 13.00000000000000000 ) ) ;
#124 = CYLINDRICAL_SURFACE ( 'NONE', #42, 0.3749999999999985012 ) ;
#125 = APPLICATION_PROTOCOL_DEFINITION ( 'international standard', 'config_control_design', 1994, #76 ) ;
#126 = APPROVAL_DATE_TIME ( #32, #73 ) ;
#127 = APPROVAL_STATUS ( 'not_yet_approved' ) ;
#128 = CIRCLE ( 'NONE', #27, 0.3749999999999968914 ) ;
#129 = APPROVAL_PERSON_ORGANIZATION ( #147, #45, #48 ) ;
#130 = CALENDAR_DATE ( 2021, 6, 10 ) ;
#131 = APPROVAL_DATE_TIME ( #189, #78 ) ;
#132 = CC_DESIGN_DATE_AND_TIME_ASSIGNMENT ( #1, #98, ( #149 ) ) ;
#133 = APPROVAL_DATE_TIME ( #163, #45 ) ;
#134 = EDGE_LOOP ( 'NONE', ( #7 ) ) ;
#135 = EDGE_CURVE ( 'NONE', #60, #60, #19, .T. ) ;
#136 = EDGE_LOOP ( 'NONE', ( #71 ) ) ;
#137 = ORIENTED_EDGE ( 'NONE', *, *, #81, .F. ) ;
#138 = CC_DESIGN_PERSON_AND_ORGANIZATION_ASSIGNMENT ( #18, #64, ( #38 ) ) ;
#139 = DIRECTION ( 'NONE',  ( 3.491481338843133355E-15, -1.224646799147353207E-16, 1.000000000000000000 ) ) ;
#140 = VERTEX_POINT ( 'NONE', #155 ) ;
#141 = DIRECTION ( 'NONE',  ( -3.491481338843133355E-15, 1.224646799147353207E-16, -1.000000000000000000 ) ) ;
#142 = DIRECTION ( 'NONE',  ( 3.491481338843133355E-15, -1.224646799147353207E-16, 1.000000000000000000 ) ) ;
#143 = FACE_OUTER_BOUND ( 'NONE', #72, .T. ) ;
#144 = PERSON_AND_ORGANIZATION ( #151, #146 ) ;
#145 = COORDINATED_UNIVERSAL_TIME_OFFSET ( 1, 0, .AHEAD. ) ;
#146 = ORGANIZATION ( 'UNSPECIFIED', 'UNSPECIFIED', '' ) ;
#147 = PERSON_AND_ORGANIZATION ( #151, #146 ) ;
#148 = PERSON_AND_ORGANIZATION ( #151, #146 ) ;
#149 = PRODUCT_DEFINITION ( 'UNKNOWN', '', #38, #79 ) ;
#150 = EDGE_LOOP ( 'NONE', ( #54 ) ) ;
#151 = PERSON ( 'UNSPECIFIED', 'UNSPECIFIED', 'UNSPECIFIED', ('UNSPECIFIED'), ('UNSPECIFIED'), ('UNSPECIFIED') ) ;
#152 = EDGE_LOOP ( 'NONE', ( #39 ) ) ;
#153 = CLOSED_SHELL ( 'NONE', ( #197, #34, #37 ) ) ;
#154 = DIRECTION ( 'NONE',  ( 4.275831445896958607E-31, 1.000000000000000000, 1.224646799147353207E-16 ) ) ;
#155 = CARTESIAN_POINT ( 'NONE',  ( 6.105391824779332986E-16, 0.3749999999999953371, 0.1748653718081246422 ) ) ;
#156 = APPROVAL_PERSON_ORGANIZATION ( #148, #78, #103 ) ;
#157 = CC_DESIGN_APPROVAL ( #45, ( #55 ) ) ;
#158 = DIRECTION ( 'NONE',  ( 0.0000000000000000000, 1.000000000000000000, 0.0000000000000000000 ) ) ;
#159 = MANIFOLD_SOLID_BREP ( 'Corps-Déplacer/Copier1[2]', #153 ) ;
#160 = FACE_OUTER_BOUND ( 'NONE', #40, .T. ) ;
#161 = CARTESIAN_POINT ( 'NONE',  ( 1.326762908760390423E-13, -4.653657836759941941E-15, 38.00000000000000000 ) ) ;
#162 = PERSON_AND_ORGANIZATION ( #151, #146 ) ;
#163 = DATE_AND_TIME ( #69, #188 ) ;
#164 = CALENDAR_DATE ( 2021, 6, 10 ) ;
#165 = EDGE_CURVE ( 'NONE', #77, #77, #128, .T. ) ;
#166 = DIRECTION ( 'NONE',  ( 1.000000000000000000, 0.0000000000000000000, 0.0000000000000000000 ) ) ;
#167 = EDGE_CURVE ( 'NONE', #140, #140, #30, .T. ) ;
#168 = AXIS2_PLACEMENT_3D ( 'NONE', #186, #4, #166 ) ;
#169 = PRODUCT ( '55473', '55473', '', ( #101 ) ) ;
#170 = ORIENTED_EDGE ( 'NONE', *, *, #167, .F. ) ;
#171 = AXIS2_PLACEMENT_3D ( 'NONE', #177, #201, #203 ) ;
#172 = DIRECTION ( 'NONE',  ( 3.491481338843133355E-15, -1.224646799147353207E-16, 1.000000000000000000 ) ) ;
#173 = DIRECTION ( 'NONE',  ( -3.491481338843133355E-15, 1.224646799147353207E-16, -1.000000000000000000 ) ) ;
#174 = DIRECTION ( 'NONE',  ( -3.491481338843133355E-15, 1.224646799147353207E-16, -1.000000000000000000 ) ) ;
#175 = CARTESIAN_POINT ( 'NONE',  ( 1.326762908760390423E-13, -4.653657836759941941E-15, 38.00000000000000000 ) ) ;
#176 = CARTESIAN_POINT ( 'NONE',  ( 4.538925740496073362E-14, -1.592040838891559095E-15, 13.00000000000000000 ) ) ;
#177 = CARTESIAN_POINT ( 'NONE',  ( 6.105391824779331014E-16, -2.141483178665316063E-17, 0.1748653718081245867 ) ) ;
#178 = CC_DESIGN_DATE_AND_TIME_ASSIGNMENT ( #5, #17, ( #55 ) ) ;
#179 = PERSON_AND_ORGANIZATION_ROLE ( 'classification_officer' ) ;
#180 = AXIS2_PLACEMENT_3D ( 'NONE', #161, #114, #44 ) ;
#181 = CALENDAR_DATE ( 2021, 6, 10 ) ;
#182 = PERSON_AND_ORGANIZATION_ROLE ( 'design_owner' ) ;
#183 = ADVANCED_BREP_SHAPE_REPRESENTATION ( '55473', ( #90, #159, #168 ), #11 ) ;
#184 = DIRECTION ( 'NONE',  ( -3.491481338843133355E-15, 1.224646799147353207E-16, -1.000000000000000000 ) ) ;
#185 = PLANE ( 'NONE',  #82 ) ;
#186 = CARTESIAN_POINT ( 'NONE',  ( 0.0000000000000000000, 0.0000000000000000000, 0.0000000000000000000 ) ) ;
#187 = CC_DESIGN_APPROVAL ( #73, ( #149 ) ) ;
#188 = LOCAL_TIME ( 13, 19, 45.00000000000000000, #117 ) ;
#189 = DATE_AND_TIME ( #164, #119 ) ;
#190 = APPROVAL_STATUS ( 'not_yet_approved' ) ;
#191 = SECURITY_CLASSIFICATION_LEVEL ( 'unclassified' ) ;
#192 = DIRECTION ( 'NONE',  ( -4.275831445896958607E-31, -1.000000000000000000, -1.224646799147353207E-16 ) ) ;
#193 = FACE_OUTER_BOUND ( 'NONE', #88, .T. ) ;
#194 = LOCAL_TIME ( 13, 19, 45.00000000000000000, #86 ) ;
#195 = PLANE ( 'NONE',  #35 ) ;
#196 = DIRECTION ( 'NONE',  ( -4.275831445896958607E-31, -1.000000000000000000, -1.224646799147353207E-16 ) ) ;
#197 = ADVANCED_FACE ( 'NONE', ( #200 ), #109, .T. ) ;
#198 = CIRCLE ( 'NONE', #180, 0.2750000000000000222 ) ;
#199 = DIRECTION ( 'NONE',  ( 0.0000000000000000000, 1.000000000000000000, 0.0000000000000000000 ) ) ;
#200 = FACE_OUTER_BOUND ( 'NONE', #136, .T. ) ;
#201 = DIRECTION ( 'NONE',  ( -3.491481338843133355E-15, 1.224646799147353207E-16, -1.000000000000000000 ) ) ;
#202 = ADVANCED_FACE ( 'NONE', ( #160, #143 ), #124, .T. ) ;
#203 = DIRECTION ( 'NONE',  ( 5.135813185032692584E-31, 1.000000000000000000, 1.445602896647357159E-16 ) ) ;
ENDSEC;
END-ISO-10303-21;
