ISO-10303-21;
HEADER;
FILE_DESCRIPTION (( 'STEP AP203' ),
    '1' );
FILE_NAME ('55471.step',
    '2021-10-06T11:19:45',
    ( '' ),
    ( '' ),
    'SwSTEP 2.0',
    'SolidWorks 2019',
    '' );
FILE_SCHEMA (( 'CONFIG_CONTROL_DESIGN' ));
ENDSEC;

DATA;
#1 = PERSON_AND_ORGANIZATION ( #138, #58 ) ;
#2 = EDGE_LOOP ( 'NONE', ( #21 ) ) ;
#3 = APPLICATION_CONTEXT ( 'configuration controlled 3d designs of mechanical parts and assemblies' ) ;
#4 = AXIS2_PLACEMENT_3D ( 'NONE', #110, #177, #194 ) ;
#5 = DIRECTION ( 'NONE',  ( 4.275831445896958607E-31, 1.000000000000000000, 1.224646799147353207E-16 ) ) ;
#6 = PERSON_AND_ORGANIZATION_ROLE ( 'design_owner' ) ;
#7 = LOCAL_TIME ( 13, 19, 45.00000000000000000, #137 ) ;
#8 = CARTESIAN_POINT ( 'NONE',  ( 4.538925740496073362E-14, 0.3499999999999953149, 13.00000000000000000 ) ) ;
#9 = CARTESIAN_POINT ( 'NONE',  ( 4.538925740496073362E-14, -1.592040838891559095E-15, 13.00000000000000000 ) ) ;
#10 = APPROVAL ( #56, 'UNSPECIFIED' ) ;
#11 = FACE_OUTER_BOUND ( 'NONE', #52, .T. ) ;
#12 = CIRCLE ( 'NONE', #4, 0.2500000000000000000 ) ;
#13 = CARTESIAN_POINT ( 'NONE',  ( 4.538925740496073362E-14, 0.3499999999999953149, 13.00000000000000000 ) ) ;
#14 = MANIFOLD_SOLID_BREP ( 'Corps-Déplacer/Copier1[1]', #23 ) ;
#15 = APPROVAL_ROLE ( '' ) ;
#16 = APPROVAL_STATUS ( 'not_yet_approved' ) ;
#17 = AXIS2_PLACEMENT_3D ( 'NONE', #98, #22, #24 ) ;
#18 = APPROVAL_ROLE ( '' ) ;
#19 = CC_DESIGN_PERSON_AND_ORGANIZATION_ASSIGNMENT ( #37, #62, ( #146 ) ) ;
#20 = APPROVAL_PERSON_ORGANIZATION ( #153, #99, #15 ) ;
#21 = ORIENTED_EDGE ( 'NONE', *, *, #85, .F. ) ;
#22 = DIRECTION ( 'NONE',  ( -3.491481338843133355E-15, 1.224646799147353207E-16, -1.000000000000000000 ) ) ;
#23 = CLOSED_SHELL ( 'NONE', ( #125, #41, #44, #148 ) ) ;
#24 = DIRECTION ( 'NONE',  ( 4.275831445896958607E-31, 1.000000000000000000, 1.224646799147353207E-16 ) ) ;
#25 = ADVANCED_BREP_SHAPE_REPRESENTATION ( '55471', ( #14, #143, #36 ), #65 ) ;
#26 = DIRECTION ( 'NONE',  ( -3.491481338843133355E-15, 1.224646799147353207E-16, -1.000000000000000000 ) ) ;
#27 = DIRECTION ( 'NONE',  ( 0.0000000000000000000, 1.000000000000000000, 0.0000000000000000000 ) ) ;
#28 = CARTESIAN_POINT ( 'NONE',  ( 1.326762908760390423E-13, 1.874699728327252219E-33, 38.00000000000000000 ) ) ;
#29 = LOCAL_TIME ( 13, 19, 45.00000000000000000, #77 ) ;
#30 = CARTESIAN_POINT ( 'NONE',  ( 5.698365703127370354E-16, -1.998717633420959728E-17, 0.1632076803542494570 ) ) ;
#31 = VERTEX_POINT ( 'NONE', #13 ) ;
#32 = DIRECTION ( 'NONE',  ( -3.491481338843133355E-15, 1.224646799147353207E-16, -1.000000000000000000 ) ) ;
#33 = CC_DESIGN_APPROVAL ( #99, ( #188 ) ) ;
#34 =( LENGTH_UNIT ( ) NAMED_UNIT ( * ) SI_UNIT ( .MILLI., .METRE. ) );
#35 = DATE_AND_TIME ( #201, #29 ) ;
#36 = AXIS2_PLACEMENT_3D ( 'NONE', #185, #168, #170 ) ;
#37 = PERSON_AND_ORGANIZATION ( #138, #58 ) ;
#38 = LOCAL_TIME ( 13, 19, 45.00000000000000000, #81 ) ;
#39 = LOCAL_TIME ( 13, 19, 45.00000000000000000, #119 ) ;
#40 = AXIS2_PLACEMENT_3D ( 'NONE', #28, #131, #113 ) ;
#41 = ADVANCED_FACE ( 'NONE', ( #42, #140 ), #70, .T. ) ;
#42 = FACE_OUTER_BOUND ( 'NONE', #2, .T. ) ;
#43 = CARTESIAN_POINT ( 'NONE',  ( 4.538925740496073362E-14, 2.624579619658203944E-33, 13.00000000000000000 ) ) ;
#44 = ADVANCED_FACE ( 'NONE', ( #84, #141 ), #93, .T. ) ;
#45 = CARTESIAN_POINT ( 'NONE',  ( 1.326762908760390423E-13, 0.2499999999999953371, 38.00000000000000000 ) ) ;
#46 = CALENDAR_DATE ( 2021, 6, 10 ) ;
#47 = ADVANCED_FACE ( 'NONE', ( #128 ), #87, .T. ) ;
#48 = DATE_AND_TIME ( #123, #97 ) ;
#49 = DIRECTION ( 'NONE',  ( -3.491481338843133355E-15, 1.224646799147353207E-16, -1.000000000000000000 ) ) ;
#50 = APPROVAL_PERSON_ORGANIZATION ( #1, #106, #154 ) ;
#51 = ORIENTED_EDGE ( 'NONE', *, *, #102, .T. ) ;
#52 = EDGE_LOOP ( 'NONE', ( #181 ) ) ;
#53 = ORIENTED_EDGE ( 'NONE', *, *, #85, .T. ) ;
#54 = AXIS2_PLACEMENT_3D ( 'NONE', #124, #26, #192 ) ;
#55 = DIRECTION ( 'NONE',  ( -3.491481338843133355E-15, 1.224646799147353207E-16, -1.000000000000000000 ) ) ;
#56 = APPROVAL_STATUS ( 'not_yet_approved' ) ;
#57 = APPLICATION_PROTOCOL_DEFINITION ( 'international standard', 'config_control_design', 1994, #3 ) ;
#58 = ORGANIZATION ( 'UNSPECIFIED', 'UNSPECIFIED', '' ) ;
#59 = DIRECTION ( 'NONE',  ( -4.275831445896958607E-31, -1.000000000000000000, -1.224646799147353207E-16 ) ) ;
#60 = UNCERTAINTY_MEASURE_WITH_UNIT (LENGTH_MEASURE( 1.000000000000000082E-05 ), #34, 'distance_accuracy_value', 'NONE');
#61 = EDGE_CURVE ( 'NONE', #152, #152, #12, .T. ) ;
#62 = PERSON_AND_ORGANIZATION_ROLE ( 'classification_officer' ) ;
#63 = PERSON_AND_ORGANIZATION ( #138, #58 ) ;
#64 = PERSON_AND_ORGANIZATION_ROLE ( 'design_supplier' ) ;
#65 =( GEOMETRIC_REPRESENTATION_CONTEXT ( 3 ) GLOBAL_UNCERTAINTY_ASSIGNED_CONTEXT ( ( #60 ) ) GLOBAL_UNIT_ASSIGNED_CONTEXT ( ( #34, #167, #133 ) ) REPRESENTATION_CONTEXT ( 'NONE', 'WORKASPACE' ) );
#66 = EDGE_LOOP ( 'NONE', ( #53 ) ) ;
#67 = EDGE_LOOP ( 'NONE', ( #51 ) ) ;
#68 = CARTESIAN_POINT ( 'NONE',  ( 4.538925740496073362E-14, 2.624579619658203944E-33, 13.00000000000000000 ) ) ;
#69 = ADVANCED_FACE ( 'NONE', ( #96, #158 ), #86, .T. ) ;
#70 = CYLINDRICAL_SURFACE ( 'NONE', #17, 0.3499999999999984235 ) ;
#71 = APPLICATION_PROTOCOL_DEFINITION ( 'international standard', 'config_control_design', 1994, #157 ) ;
#72 = CARTESIAN_POINT ( 'NONE',  ( 1.323271427421547605E-13, 0.3499999999999953149, 37.89999999999999858 ) ) ;
#73 = DIRECTION ( 'NONE',  ( -3.491481338843133355E-15, 1.224646799147353207E-16, -1.000000000000000000 ) ) ;
#74 = CARTESIAN_POINT ( 'NONE',  ( 5.698365703127370354E-16, -1.998717633420959728E-17, 0.1632076803542494570 ) ) ;
#75 = APPROVAL_PERSON_ORGANIZATION ( #196, #10, #18 ) ;
#76 = VERTEX_POINT ( 'NONE', #72 ) ;
#77 = COORDINATED_UNIVERSAL_TIME_OFFSET ( 1, 0, .AHEAD. ) ;
#78 = DATE_AND_TIME ( #46, #7 ) ;
#79 = CONICAL_SURFACE ( 'NONE', #195, 0.3499999999999953149, 1.134464013796309345 ) ;
#80 = CC_DESIGN_DATE_AND_TIME_ASSIGNMENT ( #35, #105, ( #146 ) ) ;
#81 = COORDINATED_UNIVERSAL_TIME_OFFSET ( 1, 0, .AHEAD. ) ;
#82 = CLOSED_SHELL ( 'NONE', ( #164, #69, #47 ) ) ;
#83 = ORIENTED_EDGE ( 'NONE', *, *, #102, .F. ) ;
#84 = FACE_OUTER_BOUND ( 'NONE', #179, .T. ) ;
#85 = EDGE_CURVE ( 'NONE', #31, #31, #180, .T. ) ;
#86 = CYLINDRICAL_SURFACE ( 'NONE', #151, 0.3499999999999961475 ) ;
#87 = PLANE ( 'NONE',  #159 ) ;
#88 = EDGE_LOOP ( 'NONE', ( #83 ) ) ;
#89 = FACE_OUTER_BOUND ( 'NONE', #126, .T. ) ;
#90 = VERTEX_POINT ( 'NONE', #8 ) ;
#91 = DIRECTION ( 'NONE',  ( 3.491481338843133355E-15, -1.224646799147353207E-16, 1.000000000000000000 ) ) ;
#92 = APPROVAL_DATE_TIME ( #136, #106 ) ;
#93 = CONICAL_SURFACE ( 'NONE', #54, 0.2500000000000000000, 0.7853981633974339571 ) ;
#94 = DATE_AND_TIME ( #190, #38 ) ;
#95 = AXIS2_PLACEMENT_3D ( 'NONE', #183, #32, #149 ) ;
#96 = FACE_OUTER_BOUND ( 'NONE', #111, .T. ) ;
#97 = LOCAL_TIME ( 13, 19, 45.00000000000000000, #171 ) ;
#98 = CARTESIAN_POINT ( 'NONE',  ( 0.0000000000000000000, 0.0000000000000000000, 0.0000000000000000000 ) ) ;
#99 = APPROVAL ( #103, 'UNSPECIFIED' ) ;
#100 = AXIS2_PLACEMENT_3D ( 'NONE', #30, #132, #114 ) ;
#101 = MECHANICAL_CONTEXT ( 'NONE', #3, 'mechanical' ) ;
#102 = EDGE_CURVE ( 'NONE', #90, #90, #173, .T. ) ;
#103 = APPROVAL_STATUS ( 'not_yet_approved' ) ;
#104 = CC_DESIGN_APPROVAL ( #10, ( #178 ) ) ;
#105 = DATE_TIME_ROLE ( 'classification_date' ) ;
#106 = APPROVAL ( #16, 'UNSPECIFIED' ) ;
#107 = SECURITY_CLASSIFICATION_LEVEL ( 'unclassified' ) ;
#108 = EDGE_LOOP ( 'NONE', ( #144 ) ) ;
#109 = CC_DESIGN_PERSON_AND_ORGANIZATION_ASSIGNMENT ( #145, #6, ( #163 ) ) ;
#110 = CARTESIAN_POINT ( 'NONE',  ( 1.326762908760390423E-13, -4.653657836759941941E-15, 38.00000000000000000 ) ) ;
#111 = EDGE_LOOP ( 'NONE', ( #176 ) ) ;
#112 = CARTESIAN_POINT ( 'NONE',  ( 4.538925740496073362E-14, -1.592040838891559095E-15, 13.00000000000000000 ) ) ;
#113 = DIRECTION ( 'NONE',  ( 4.275831445896958607E-31, 1.000000000000000000, 1.224646799147353207E-16 ) ) ;
#114 = DIRECTION ( 'NONE',  ( 5.502656983963604952E-31, 1.000000000000000000, 1.548860246407884290E-16 ) ) ;
#115 = AXIS2_PLACEMENT_3D ( 'NONE', #112, #49, #27 ) ;
#116 = FACE_OUTER_BOUND ( 'NONE', #66, .T. ) ;
#117 = PRODUCT_DEFINITION_SHAPE ( 'NONE', 'NONE',  #178 ) ;
#118 = PERSON_AND_ORGANIZATION ( #138, #58 ) ;
#119 = COORDINATED_UNIVERSAL_TIME_OFFSET ( 1, 0, .AHEAD. ) ;
#120 = DATE_TIME_ROLE ( 'creation_date' ) ;
#121 = PRODUCT_RELATED_PRODUCT_CATEGORY ( 'detail', '', ( #163 ) ) ;
#122 = AXIS2_PLACEMENT_3D ( 'NONE', #9, #73, #129 ) ;
#123 = CALENDAR_DATE ( 2021, 6, 10 ) ;
#124 = CARTESIAN_POINT ( 'NONE',  ( 1.326762908760390423E-13, -4.653657836759941941E-15, 38.00000000000000000 ) ) ;
#125 = ADVANCED_FACE ( 'NONE', ( #116 ), #169, .F. ) ;
#126 = EDGE_LOOP ( 'NONE', ( #155 ) ) ;
#127 = DIRECTION ( 'NONE',  ( -4.275831445896958607E-31, -1.000000000000000000, -1.224646799147353207E-16 ) ) ;
#128 = FACE_OUTER_BOUND ( 'NONE', #88, .T. ) ;
#129 = DIRECTION ( 'NONE',  ( 0.0000000000000000000, 1.000000000000000000, 0.0000000000000000000 ) ) ;
#130 = CC_DESIGN_DATE_AND_TIME_ASSIGNMENT ( #94, #120, ( #178 ) ) ;
#131 = DIRECTION ( 'NONE',  ( -3.491481338843133355E-15, 1.224646799147353207E-16, -1.000000000000000000 ) ) ;
#132 = DIRECTION ( 'NONE',  ( -3.491481338843133355E-15, 1.224646799147353207E-16, -1.000000000000000000 ) ) ;
#133 =( NAMED_UNIT ( * ) SI_UNIT ( $, .STERADIAN. ) SOLID_ANGLE_UNIT ( ) );
#134 = APPROVAL_DATE_TIME ( #78, #10 ) ;
#135 = EDGE_CURVE ( 'NONE', #76, #76, #166, .T. ) ;
#136 = DATE_AND_TIME ( #174, #39 ) ;
#137 = COORDINATED_UNIVERSAL_TIME_OFFSET ( 1, 0, .AHEAD. ) ;
#138 = PERSON ( 'UNSPECIFIED', 'UNSPECIFIED', 'UNSPECIFIED', ('UNSPECIFIED'), ('UNSPECIFIED'), ('UNSPECIFIED') ) ;
#139 = AXIS2_PLACEMENT_3D ( 'NONE', #43, #91, #59 ) ;
#140 = FACE_OUTER_BOUND ( 'NONE', #156, .T. ) ;
#141 = FACE_BOUND ( 'NONE', #108, .T. ) ;
#142 = CARTESIAN_POINT ( 'NONE',  ( 0.0000000000000000000, 0.0000000000000000000, 0.0000000000000000000 ) ) ;
#143 = MANIFOLD_SOLID_BREP ( 'Corps-Déplacer/Copier1[2]', #82 ) ;
#144 = ORIENTED_EDGE ( 'NONE', *, *, #61, .T. ) ;
#145 = PERSON_AND_ORGANIZATION ( #138, #58 ) ;
#146 = SECURITY_CLASSIFICATION ( '', '', #107 ) ;
#147 = DIRECTION ( 'NONE',  ( -5.502656983963604952E-31, -1.000000000000000000, -1.548860246407884290E-16 ) ) ;
#148 = ADVANCED_FACE ( 'NONE', ( #11 ), #165, .F. ) ;
#149 = DIRECTION ( 'NONE',  ( 0.0000000000000000000, 1.000000000000000000, 0.0000000000000000000 ) ) ;
#150 = DIRECTION ( 'NONE',  ( 3.491481338843133355E-15, -1.224646799147353207E-16, 1.000000000000000000 ) ) ;
#151 = AXIS2_PLACEMENT_3D ( 'NONE', #142, #55, #5 ) ;
#152 = VERTEX_POINT ( 'NONE', #45 ) ;
#153 = PERSON_AND_ORGANIZATION ( #138, #58 ) ;
#154 = APPROVAL_ROLE ( '' ) ;
#155 = ORIENTED_EDGE ( 'NONE', *, *, #182, .T. ) ;
#156 = EDGE_LOOP ( 'NONE', ( #193 ) ) ;
#157 = APPLICATION_CONTEXT ( 'configuration controlled 3d designs of mechanical parts and assemblies' ) ;
#158 = FACE_OUTER_BOUND ( 'NONE', #67, .T. ) ;
#159 = AXIS2_PLACEMENT_3D ( 'NONE', #68, #191, #127 ) ;
#160 = CC_DESIGN_PERSON_AND_ORGANIZATION_ASSIGNMENT ( #118, #187, ( #178 ) ) ;
#161 = CC_DESIGN_SECURITY_CLASSIFICATION ( #146, ( #188 ) ) ;
#162 = ORIENTED_EDGE ( 'NONE', *, *, #135, .F. ) ;
#163 = PRODUCT ( '55471', '55471', '', ( #101 ) ) ;
#164 = ADVANCED_FACE ( 'NONE', ( #89 ), #79, .T. ) ;
#165 = PLANE ( 'NONE',  #40 ) ;
#166 = CIRCLE ( 'NONE', #95, 0.3499999999999999778 ) ;
#167 =( NAMED_UNIT ( * ) PLANE_ANGLE_UNIT ( ) SI_UNIT ( $, .RADIAN. ) );
#168 = DIRECTION ( 'NONE',  ( 0.0000000000000000000, 0.0000000000000000000, 1.000000000000000000 ) ) ;
#169 = PLANE ( 'NONE',  #139 ) ;
#170 = DIRECTION ( 'NONE',  ( 1.000000000000000000, 0.0000000000000000000, 0.0000000000000000000 ) ) ;
#171 = COORDINATED_UNIVERSAL_TIME_OFFSET ( 1, 0, .AHEAD. ) ;
#172 = PERSON_AND_ORGANIZATION_ROLE ( 'creator' ) ;
#173 = CIRCLE ( 'NONE', #122, 0.3499999999999969247 ) ;
#174 = CALENDAR_DATE ( 2021, 6, 10 ) ;
#175 = CC_DESIGN_PERSON_AND_ORGANIZATION_ASSIGNMENT ( #186, #64, ( #188 ) ) ;
#176 = ORIENTED_EDGE ( 'NONE', *, *, #182, .F. ) ;
#177 = DIRECTION ( 'NONE',  ( -3.491481338843133355E-15, 1.224646799147353207E-16, -1.000000000000000000 ) ) ;
#178 = PRODUCT_DEFINITION ( 'UNKNOWN', '', #188, #197 ) ;
#179 = EDGE_LOOP ( 'NONE', ( #162 ) ) ;
#180 = CIRCLE ( 'NONE', #115, 0.3499999999999969247 ) ;
#181 = ORIENTED_EDGE ( 'NONE', *, *, #61, .F. ) ;
#182 = EDGE_CURVE ( 'NONE', #184, #184, #199, .T. ) ;
#183 = CARTESIAN_POINT ( 'NONE',  ( 1.323271427421547605E-13, -4.641411368768468584E-15, 37.89999999999999858 ) ) ;
#184 = VERTEX_POINT ( 'NONE', #198 ) ;
#185 = CARTESIAN_POINT ( 'NONE',  ( 0.0000000000000000000, 0.0000000000000000000, 0.0000000000000000000 ) ) ;
#186 = PERSON_AND_ORGANIZATION ( #138, #58 ) ;
#187 = PERSON_AND_ORGANIZATION_ROLE ( 'creator' ) ;
#188 = PRODUCT_DEFINITION_FORMATION_WITH_SPECIFIED_SOURCE ( 'ANY', '', #163, .NOT_KNOWN. ) ;
#189 = APPROVAL_DATE_TIME ( #48, #99 ) ;
#190 = CALENDAR_DATE ( 2021, 6, 10 ) ;
#191 = DIRECTION ( 'NONE',  ( 3.491481338843133355E-15, -1.224646799147353207E-16, 1.000000000000000000 ) ) ;
#192 = DIRECTION ( 'NONE',  ( 0.0000000000000000000, 1.000000000000000000, 0.0000000000000000000 ) ) ;
#193 = ORIENTED_EDGE ( 'NONE', *, *, #135, .T. ) ;
#194 = DIRECTION ( 'NONE',  ( 0.0000000000000000000, 1.000000000000000000, 0.0000000000000000000 ) ) ;
#195 = AXIS2_PLACEMENT_3D ( 'NONE', #74, #150, #147 ) ;
#196 = PERSON_AND_ORGANIZATION ( #138, #58 ) ;
#197 = DESIGN_CONTEXT ( 'detailed design', #157, 'design' ) ;
#198 = CARTESIAN_POINT ( 'NONE',  ( 5.698365703127372326E-16, 0.3499999999999953149, 0.1632076803542495125 ) ) ;
#199 = CIRCLE ( 'NONE', #100, 0.3499999999999953149 ) ;
#200 = CC_DESIGN_PERSON_AND_ORGANIZATION_ASSIGNMENT ( #63, #172, ( #188 ) ) ;
#201 = CALENDAR_DATE ( 2021, 6, 10 ) ;
#202 = CC_DESIGN_APPROVAL ( #106, ( #146 ) ) ;
#203 = SHAPE_DEFINITION_REPRESENTATION ( #117, #25 ) ;
ENDSEC;
END-ISO-10303-21;
