ISO-10303-21;
HEADER;
FILE_DESCRIPTION (( 'STEP AP203' ),
    '1' );
FILE_NAME ('55451.step',
    '2021-10-13T11:36:26',
    ( '' ),
    ( '' ),
    'SwSTEP 2.0',
    'SolidWorks 2019',
    '' );
FILE_SCHEMA (( 'CONFIG_CONTROL_DESIGN' ));
ENDSEC;

DATA;
#1 = SHAPE_DEFINITION_REPRESENTATION ( #214, #78 ) ;
#2 = EDGE_LOOP ( 'NONE', ( #168 ) ) ;
#3 = PLANE ( 'NONE',  #118 ) ;
#4 = DIRECTION ( 'NONE',  ( 3.491481338843133355E-15, -4.327174794786742882E-16, 1.000000000000000000 ) ) ;
#5 = CIRCLE ( 'NONE', #10, 4.600000000000006750 ) ;
#6 = ORIENTED_EDGE ( 'NONE', *, *, #92, .T. ) ;
#7 = APPROVAL ( #164, 'UNSPECIFIED' ) ;
#8 = DIRECTION ( 'NONE',  ( -3.491481338843133355E-15, 1.224646799147353207E-16, -1.000000000000000000 ) ) ;
#9 = CARTESIAN_POINT ( 'NONE',  ( 1.222018468595096801E-13, -1.514511178175360324E-14, 35.00000000000000000 ) ) ;
#10 = AXIS2_PLACEMENT_3D ( 'NONE', #192, #8, #226 ) ;
#11 = FACE_OUTER_BOUND ( 'NONE', #133, .T. ) ;
#12 = ADVANCED_FACE ( 'NONE', ( #147, #224 ), #87, .T. ) ;
#13 = CYLINDRICAL_SURFACE ( 'NONE', #151, 4.999999999999997335 ) ;
#14 = CARTESIAN_POINT ( 'NONE',  ( 6.353976404174116092E-15, -2.228674911895110024E-16, 1.819851171331031914 ) ) ;
#15 = APPROVAL_ROLE ( '' ) ;
#16 = SECURITY_CLASSIFICATION_LEVEL ( 'unclassified' ) ;
#17 =( NAMED_UNIT ( * ) PLANE_ANGLE_UNIT ( ) SI_UNIT ( $, .RADIAN. ) );
#18 = CIRCLE ( 'NONE', #263, 4.600000000000006750 ) ;
#19 = EDGE_CURVE ( 'NONE', #215, #215, #233, .T. ) ;
#20 = APPLICATION_PROTOCOL_DEFINITION ( 'international standard', 'config_control_design', 1994, #228 ) ;
#21 = COORDINATED_UNIVERSAL_TIME_OFFSET ( 1, 0, .AHEAD. ) ;
#22 = ORIENTED_EDGE ( 'NONE', *, *, #128, .T. ) ;
#23 = DIRECTION ( 'NONE',  ( -3.491481338843133355E-15, 4.327174794786742882E-16, -1.000000000000000000 ) ) ;
#24 = CIRCLE ( 'NONE', #75, 4.600000000000014744 ) ;
#25 = ORIENTED_EDGE ( 'NONE', *, *, #247, .T. ) ;
#26 = DIRECTION ( 'NONE',  ( -3.491481338843133355E-15, 4.327174794786742882E-16, -1.000000000000000000 ) ) ;
#27 = ORIENTED_EDGE ( 'NONE', *, *, #218, .T. ) ;
#28 = CC_DESIGN_PERSON_AND_ORGANIZATION_ASSIGNMENT ( #104, #219, ( #105 ) ) ;
#29 = EDGE_LOOP ( 'NONE', ( #90 ) ) ;
#30 = DIRECTION ( 'NONE',  ( -3.491481338843133355E-15, 4.327174794786742882E-16, -1.000000000000000000 ) ) ;
#31 = ORGANIZATION ( 'UNSPECIFIED', 'UNSPECIFIED', '' ) ;
#32 = CARTESIAN_POINT ( 'NONE',  ( 1.640996229256272803E-13, -2.033772153549769155E-14, 47.00000000000000000 ) ) ;
#33 = FACE_OUTER_BOUND ( 'NONE', #209, .T. ) ;
#34 = DIRECTION ( 'NONE',  ( 0.0000000000000000000, -1.000000000000000000, 0.0000000000000000000 ) ) ;
#35 = CIRCLE ( 'NONE', #107, 4.600000000000006750 ) ;
#36 = MECHANICAL_CONTEXT ( 'NONE', #42, 'mechanical' ) ;
#37 = DATE_AND_TIME ( #220, #202 ) ;
#38 = EDGE_LOOP ( 'NONE', ( #143 ) ) ;
#39 = PERSON_AND_ORGANIZATION ( #241, #31 ) ;
#40 = ADVANCED_FACE ( 'NONE', ( #146, #43 ), #125, .T. ) ;
#41 = APPROVAL_STATUS ( 'not_yet_approved' ) ;
#42 = APPLICATION_CONTEXT ( 'configuration controlled 3d designs of mechanical parts and assemblies' ) ;
#43 = FACE_OUTER_BOUND ( 'NONE', #229, .T. ) ;
#44 = PRODUCT_RELATED_PRODUCT_CATEGORY ( 'detail', '', ( #57 ) ) ;
#45 = DIRECTION ( 'NONE',  ( 1.510825004591028030E-30, 1.000000000000000000, 4.327174794786742882E-16 ) ) ;
#46 = AXIS2_PLACEMENT_3D ( 'NONE', #72, #93, #204 ) ;
#47 = DIRECTION ( 'NONE',  ( 1.510825004591027679E-30, 1.000000000000000000, 4.327174794786742882E-16 ) ) ;
#48 = CARTESIAN_POINT ( 'NONE',  ( 1.222018468595096801E-13, 3.749399456654634167E-32, 35.00000000000000000 ) ) ;
#49 = EDGE_LOOP ( 'NONE', ( #114 ) ) ;
#50 = CONICAL_SURFACE ( 'NONE', #198, 4.999999999999990230, 1.221730476396026610 ) ;
#51 = CARTESIAN_POINT ( 'NONE',  ( 0.0000000000000000000, 0.0000000000000000000, 0.0000000000000000000 ) ) ;
#52 = CARTESIAN_POINT ( 'NONE',  ( 1.222018468595096801E-13, 3.749399456654634167E-32, 35.00000000000000000 ) ) ;
#53 = UNCERTAINTY_MEASURE_WITH_UNIT (LENGTH_MEASURE( 1.000000000000000082E-05 ), #155, 'distance_accuracy_value', 'NONE');
#54 = CARTESIAN_POINT ( 'NONE',  ( 0.0000000000000000000, 0.0000000000000000000, 0.0000000000000000000 ) ) ;
#55 = CLOSED_SHELL ( 'NONE', ( #237, #122, #66, #163, #40, #69, #154 ) ) ;
#56 = APPROVAL_PERSON_ORGANIZATION ( #262, #252, #15 ) ;
#57 = PRODUCT ( '55451', '55451', '', ( #36 ) ) ;
#58 = DIRECTION ( 'NONE',  ( 0.0000000000000000000, 1.000000000000000000, 0.0000000000000000000 ) ) ;
#59 = CARTESIAN_POINT ( 'NONE',  ( 5.845658291840204159E-15, -4.600000000000006750, 1.674263077624554397 ) ) ;
#60 = CALENDAR_DATE ( 2021, 13, 10 ) ;
#61 = LOCAL_TIME ( 13, 36, 26.00000000000000000, #21 ) ;
#62 = APPROVAL_DATE_TIME ( #126, #7 ) ;
#63 = EDGE_LOOP ( 'NONE', ( #189 ) ) ;
#64 = CARTESIAN_POINT ( 'NONE',  ( 0.0000000000000000000, 0.0000000000000000000, 0.0000000000000000000 ) ) ;
#65 =( NAMED_UNIT ( * ) SI_UNIT ( $, .STERADIAN. ) SOLID_ANGLE_UNIT ( ) );
#66 = ADVANCED_FACE ( 'NONE', ( #206 ), #3, .F. ) ;
#67 = CC_DESIGN_PERSON_AND_ORGANIZATION_ASSIGNMENT ( #238, #200, ( #185 ) ) ;
#68 = DIRECTION ( 'NONE',  ( 0.0000000000000000000, -1.000000000000000000, 0.0000000000000000000 ) ) ;
#69 = ADVANCED_FACE ( 'NONE', ( #169, #248 ), #86, .F. ) ;
#70 = ORIENTED_EDGE ( 'NONE', *, *, #184, .T. ) ;
#71 = APPROVAL_PERSON_ORGANIZATION ( #199, #7, #187 ) ;
#72 = CARTESIAN_POINT ( 'NONE',  ( 3.107418391570388560E-13, -1.089935651241144239E-14, 89.00000000000000000 ) ) ;
#73 = DIRECTION ( 'NONE',  ( 3.491481338843133355E-15, -4.327174794786742882E-16, 1.000000000000000000 ) ) ;
#74 = FACE_OUTER_BOUND ( 'NONE', #2, .T. ) ;
#75 = AXIS2_PLACEMENT_3D ( 'NONE', #32, #30, #58 ) ;
#76 = CARTESIAN_POINT ( 'NONE',  ( 1.222018468595096801E-13, -4.600000000000021849, 35.00000000000000000 ) ) ;
#77 = VERTEX_POINT ( 'NONE', #135 ) ;
#78 = ADVANCED_BREP_SHAPE_REPRESENTATION ( '55451', ( #83, #159, #221 ), #179 ) ;
#79 = FACE_BOUND ( 'NONE', #253, .T. ) ;
#80 = CC_DESIGN_SECURITY_CLASSIFICATION ( #112, ( #185 ) ) ;
#81 = APPROVAL ( #41, 'UNSPECIFIED' ) ;
#82 = CARTESIAN_POINT ( 'NONE',  ( 3.072503578181957353E-13, 4.999999999999990230, 88.00000000000000000 ) ) ;
#83 = MANIFOLD_SOLID_BREP ( 'Corps-Déplacer/Copier1[1]', #55 ) ;
#84 = APPROVAL_DATE_TIME ( #161, #252 ) ;
#85 = CC_DESIGN_DATE_AND_TIME_ASSIGNMENT ( #141, #217, ( #112 ) ) ;
#86 = TOROIDAL_SURFACE ( 'NONE', #95, 5.600000000000013856, 0.9999999999999991118 ) ;
#87 = CYLINDRICAL_SURFACE ( 'NONE', #162, 4.600000000000006750 ) ;
#88 = ORIENTED_EDGE ( 'NONE', *, *, #128, .F. ) ;
#89 = CC_DESIGN_APPROVAL ( #252, ( #112 ) ) ;
#90 = ORIENTED_EDGE ( 'NONE', *, *, #166, .F. ) ;
#91 = CARTESIAN_POINT ( 'NONE',  ( 0.0000000000000000000, 0.0000000000000000000, 0.0000000000000000000 ) ) ;
#92 = EDGE_CURVE ( 'NONE', #213, #213, #5, .T. ) ;
#93 = DIRECTION ( 'NONE',  ( -3.491481338843133355E-15, 1.224646799147353207E-16, -1.000000000000000000 ) ) ;
#94 = DIRECTION ( 'NONE',  ( -3.491481338843133355E-15, 1.224646799147353207E-16, -1.000000000000000000 ) ) ;
#95 = AXIS2_PLACEMENT_3D ( 'NONE', #108, #23, #47 ) ;
#96 = DIRECTION ( 'NONE',  ( 4.275831445896959482E-31, 1.000000000000000000, 1.224646799147353207E-16 ) ) ;
#97 = DIRECTION ( 'NONE',  ( 0.0000000000000000000, -1.000000000000000000, 0.0000000000000000000 ) ) ;
#98 = DIRECTION ( 'NONE',  ( -4.622231866529374805E-31, -1.000000000000000000, -1.301042606982607786E-16 ) ) ;
#99 = AXIS2_PLACEMENT_3D ( 'NONE', #177, #120, #211 ) ;
#100 = PLANE ( 'NONE',  #121 ) ;
#101 = COORDINATED_UNIVERSAL_TIME_OFFSET ( 1, 0, .AHEAD. ) ;
#102 = DATE_TIME_ROLE ( 'creation_date' ) ;
#103 = COORDINATED_UNIVERSAL_TIME_OFFSET ( 1, 0, .AHEAD. ) ;
#104 = PERSON_AND_ORGANIZATION ( #241, #31 ) ;
#105 = PRODUCT_DEFINITION ( 'UNKNOWN', '', #185, #210 ) ;
#106 = APPROVAL_ROLE ( '' ) ;
#107 = AXIS2_PLACEMENT_3D ( 'NONE', #119, #94, #97 ) ;
#108 = CARTESIAN_POINT ( 'NONE',  ( 1.640996229256272803E-13, -1.994931997373328159E-14, 47.00000000000000000 ) ) ;
#109 = EDGE_CURVE ( 'NONE', #153, #153, #157, .T. ) ;
#110 = EDGE_LOOP ( 'NONE', ( #22 ) ) ;
#111 = ORIENTED_EDGE ( 'NONE', *, *, #109, .T. ) ;
#112 = SECURITY_CLASSIFICATION ( '', '', #16 ) ;
#113 = EDGE_LOOP ( 'NONE', ( #148 ) ) ;
#114 = ORIENTED_EDGE ( 'NONE', *, *, #218, .F. ) ;
#115 = CARTESIAN_POINT ( 'NONE',  ( 3.107418391570388560E-13, 3.999999999999990674, 89.00000000000000000 ) ) ;
#116 = FACE_OUTER_BOUND ( 'NONE', #113, .T. ) ;
#117 = ADVANCED_FACE ( 'NONE', ( #207 ), #190, .T. ) ;
#118 = AXIS2_PLACEMENT_3D ( 'NONE', #250, #127, #227 ) ;
#119 = CARTESIAN_POINT ( 'NONE',  ( 1.222018468595096801E-13, -1.514511178175360324E-14, 35.00000000000000000 ) ) ;
#120 = DIRECTION ( 'NONE',  ( -3.491481338843133355E-15, 1.224646799147353207E-16, -1.000000000000000000 ) ) ;
#121 = AXIS2_PLACEMENT_3D ( 'NONE', #52, #152, #197 ) ;
#122 = ADVANCED_FACE ( 'NONE', ( #134, #79 ), #212, .T. ) ;
#123 = APPROVAL_STATUS ( 'not_yet_approved' ) ;
#124 = PERSON_AND_ORGANIZATION ( #241, #31 ) ;
#125 = CONICAL_SURFACE ( 'NONE', #254, 5.500000000000016875, 0.5235987755982999259 ) ;
#126 = DATE_AND_TIME ( #260, #170 ) ;
#127 = DIRECTION ( 'NONE',  ( -3.491481338843133355E-15, 1.224646799147353207E-16, -1.000000000000000000 ) ) ;
#128 = EDGE_CURVE ( 'NONE', #255, #255, #194, .T. ) ;
#129 = EDGE_LOOP ( 'NONE', ( #167 ) ) ;
#130 = CARTESIAN_POINT ( 'NONE',  ( 1.704778432960580462E-13, -2.112820762847701868E-14, 48.82679491924311321 ) ) ;
#131 = EDGE_LOOP ( 'NONE', ( #70 ) ) ;
#132 = AXIS2_PLACEMENT_3D ( 'NONE', #176, #216, #158 ) ;
#133 = EDGE_LOOP ( 'NONE', ( #25 ) ) ;
#134 = FACE_OUTER_BOUND ( 'NONE', #29, .T. ) ;
#135 = CARTESIAN_POINT ( 'NONE',  ( 1.222018468595096801E-13, -4.600000000000021849, 35.00000000000000000 ) ) ;
#136 = ADVANCED_FACE ( 'NONE', ( #33 ), #50, .T. ) ;
#137 = VERTEX_POINT ( 'NONE', #140 ) ;
#138 = LOCAL_TIME ( 13, 36, 26.00000000000000000, #101 ) ;
#139 = FACE_OUTER_BOUND ( 'NONE', #129, .T. ) ;
#140 = CARTESIAN_POINT ( 'NONE',  ( 1.640996229256272803E-13, 4.599999999999994316, 47.00000000000000000 ) ) ;
#141 = DATE_AND_TIME ( #60, #258 ) ;
#142 = APPROVAL_PERSON_ORGANIZATION ( #203, #81, #106 ) ;
#143 = ORIENTED_EDGE ( 'NONE', *, *, #109, .F. ) ;
#144 = APPLICATION_PROTOCOL_DEFINITION ( 'international standard', 'config_control_design', 1994, #42 ) ;
#145 = PERSON_AND_ORGANIZATION_ROLE ( 'classification_officer' ) ;
#146 = FACE_BOUND ( 'NONE', #245, .T. ) ;
#147 = FACE_OUTER_BOUND ( 'NONE', #131, .T. ) ;
#148 = ORIENTED_EDGE ( 'NONE', *, *, #166, .T. ) ;
#149 = CC_DESIGN_DATE_AND_TIME_ASSIGNMENT ( #37, #102, ( #105 ) ) ;
#150 = CARTESIAN_POINT ( 'NONE',  ( 1.674541317597804661E-13, -2.075346329858690202E-14, 47.96076951545864375 ) ) ;
#151 = AXIS2_PLACEMENT_3D ( 'NONE', #51, #156, #96 ) ;
#152 = DIRECTION ( 'NONE',  ( 3.491481338843133355E-15, -1.224646799147353207E-16, 1.000000000000000000 ) ) ;
#153 = VERTEX_POINT ( 'NONE', #115 ) ;
#154 = ADVANCED_FACE ( 'NONE', ( #11 ), #100, .F. ) ;
#155 =( LENGTH_UNIT ( ) NAMED_UNIT ( * ) SI_UNIT ( .MILLI., .METRE. ) );
#156 = DIRECTION ( 'NONE',  ( -3.491481338843133355E-15, 1.224646799147353207E-16, -1.000000000000000000 ) ) ;
#157 = CIRCLE ( 'NONE', #46, 4.000000000000001776 ) ;
#158 = DIRECTION ( 'NONE',  ( 0.0000000000000000000, 1.000000000000000000, 0.0000000000000000000 ) ) ;
#159 = MANIFOLD_SOLID_BREP ( 'Corps-Déplacer/Copier1[2]', #244 ) ;
#160 = COORDINATED_UNIVERSAL_TIME_OFFSET ( 1, 0, .AHEAD. ) ;
#161 = DATE_AND_TIME ( #182, #138 ) ;
#162 = AXIS2_PLACEMENT_3D ( 'NONE', #91, #26, #45 ) ;
#163 = ADVANCED_FACE ( 'NONE', ( #257, #74 ), #256, .T. ) ;
#164 = APPROVAL_STATUS ( 'not_yet_approved' ) ;
#165 = DIRECTION ( 'NONE',  ( 0.0000000000000000000, 0.0000000000000000000, 1.000000000000000000 ) ) ;
#166 = EDGE_CURVE ( 'NONE', #259, #259, #174, .T. ) ;
#167 = ORIENTED_EDGE ( 'NONE', *, *, #19, .T. ) ;
#168 = ORIENTED_EDGE ( 'NONE', *, *, #247, .F. ) ;
#169 = FACE_OUTER_BOUND ( 'NONE', #49, .T. ) ;
#170 = LOCAL_TIME ( 13, 36, 26.00000000000000000, #103 ) ;
#171 = EDGE_LOOP ( 'NONE', ( #223 ) ) ;
#172 = DIRECTION ( 'NONE',  ( 0.0000000000000000000, -1.000000000000000000, 0.0000000000000000000 ) ) ;
#173 = ORIENTED_EDGE ( 'NONE', *, *, #19, .F. ) ;
#174 = CIRCLE ( 'NONE', #188, 5.000000000000000888 ) ;
#175 = DIRECTION ( 'NONE',  ( -3.491481338843133355E-15, 1.224646799147353207E-16, -1.000000000000000000 ) ) ;
#176 = CARTESIAN_POINT ( 'NONE',  ( 1.658453635950488407E-13, -2.055408027523702711E-14, 47.50000000000000000 ) ) ;
#177 = CARTESIAN_POINT ( 'NONE',  ( 3.107418391570388560E-13, -1.089935651241144239E-14, 89.00000000000000000 ) ) ;
#178 = DIRECTION ( 'NONE',  ( 1.510825004591028030E-30, 1.000000000000000000, 4.327174794786742882E-16 ) ) ;
#179 =( GEOMETRIC_REPRESENTATION_CONTEXT ( 3 ) GLOBAL_UNCERTAINTY_ASSIGNED_CONTEXT ( ( #53 ) ) GLOBAL_UNIT_ASSIGNED_CONTEXT ( ( #155, #17, #65 ) ) REPRESENTATION_CONTEXT ( 'NONE', 'WORKASPACE' ) );
#180 = CC_DESIGN_PERSON_AND_ORGANIZATION_ASSIGNMENT ( #183, #145, ( #112 ) ) ;
#181 = DIRECTION ( 'NONE',  ( 3.491481338843133355E-15, -1.224646799147353207E-16, 1.000000000000000000 ) ) ;
#182 = CALENDAR_DATE ( 2021, 13, 10 ) ;
#183 = PERSON_AND_ORGANIZATION ( #241, #31 ) ;
#184 = EDGE_CURVE ( 'NONE', #232, #232, #18, .T. ) ;
#185 = PRODUCT_DEFINITION_FORMATION_WITH_SPECIFIED_SOURCE ( 'ANY', '', #57, .NOT_KNOWN. ) ;
#186 = PERSON_AND_ORGANIZATION_ROLE ( 'design_supplier' ) ;
#187 = APPROVAL_ROLE ( '' ) ;
#188 = AXIS2_PLACEMENT_3D ( 'NONE', #235, #234, #231 ) ;
#189 = ORIENTED_EDGE ( 'NONE', *, *, #92, .F. ) ;
#190 = PLANE ( 'NONE',  #230 ) ;
#191 = CC_DESIGN_PERSON_AND_ORGANIZATION_ASSIGNMENT ( #124, #240, ( #57 ) ) ;
#192 = CARTESIAN_POINT ( 'NONE',  ( 5.845658291840206526E-15, -2.050380918943508055E-16, 1.674263077624555063 ) ) ;
#193 = CARTESIAN_POINT ( 'NONE',  ( 1.658453635950488407E-13, 4.733974596215555941, 47.50000000000000000 ) ) ;
#194 = CIRCLE ( 'NONE', #132, 4.733974596215577257 ) ;
#195 = CARTESIAN_POINT ( 'NONE',  ( 1.674541317597804661E-13, -5.000000000000018652, 47.96076951545864375 ) ) ;
#196 = DIRECTION ( 'NONE',  ( -3.491481338843133355E-15, 4.327174794786742882E-16, -1.000000000000000000 ) ) ;
#197 = DIRECTION ( 'NONE',  ( -4.275831445896958607E-31, -1.000000000000000000, -1.224646799147353207E-16 ) ) ;
#198 = AXIS2_PLACEMENT_3D ( 'NONE', #14, #181, #98 ) ;
#199 = PERSON_AND_ORGANIZATION ( #241, #31 ) ;
#200 = PERSON_AND_ORGANIZATION_ROLE ( 'creator' ) ;
#201 = COORDINATED_UNIVERSAL_TIME_OFFSET ( 1, 0, .AHEAD. ) ;
#202 = LOCAL_TIME ( 13, 36, 26.00000000000000000, #201 ) ;
#203 = PERSON_AND_ORGANIZATION ( #241, #31 ) ;
#204 = DIRECTION ( 'NONE',  ( 0.0000000000000000000, 1.000000000000000000, 0.0000000000000000000 ) ) ;
#205 = CC_DESIGN_APPROVAL ( #81, ( #105 ) ) ;
#206 = FACE_OUTER_BOUND ( 'NONE', #38, .T. ) ;
#207 = FACE_OUTER_BOUND ( 'NONE', #171, .T. ) ;
#208 = DIRECTION ( 'NONE',  ( 3.491481338843133355E-15, -1.224646799147353207E-16, 1.000000000000000000 ) ) ;
#209 = EDGE_LOOP ( 'NONE', ( #6 ) ) ;
#210 = DESIGN_CONTEXT ( 'detailed design', #228, 'design' ) ;
#211 = DIRECTION ( 'NONE',  ( 0.0000000000000000000, 1.000000000000000000, 0.0000000000000000000 ) ) ;
#212 = CONICAL_SURFACE ( 'NONE', #99, 4.000000000000001776, 0.7853981633974473908 ) ;
#213 = VERTEX_POINT ( 'NONE', #59 ) ;
#214 = PRODUCT_DEFINITION_SHAPE ( 'NONE', 'NONE',  #105 ) ;
#215 = VERTEX_POINT ( 'NONE', #195 ) ;
#216 = DIRECTION ( 'NONE',  ( -3.491481338843133355E-15, 4.327174794786742882E-16, -1.000000000000000000 ) ) ;
#217 = DATE_TIME_ROLE ( 'classification_date' ) ;
#218 = EDGE_CURVE ( 'NONE', #137, #137, #24, .T. ) ;
#219 = PERSON_AND_ORGANIZATION_ROLE ( 'creator' ) ;
#220 = CALENDAR_DATE ( 2021, 13, 10 ) ;
#221 = AXIS2_PLACEMENT_3D ( 'NONE', #64, #165, #261 ) ;
#222 = CC_DESIGN_PERSON_AND_ORGANIZATION_ASSIGNMENT ( #39, #186, ( #185 ) ) ;
#223 = ORIENTED_EDGE ( 'NONE', *, *, #184, .F. ) ;
#224 = FACE_OUTER_BOUND ( 'NONE', #63, .T. ) ;
#225 = AXIS2_PLACEMENT_3D ( 'NONE', #54, #196, #178 ) ;
#226 = DIRECTION ( 'NONE',  ( -5.024165072314521230E-31, -1.000000000000000000, -1.414176746720221181E-16 ) ) ;
#227 = DIRECTION ( 'NONE',  ( 4.275831445896958607E-31, 1.000000000000000000, 1.224646799147353207E-16 ) ) ;
#228 = APPLICATION_CONTEXT ( 'configuration controlled 3d designs of mechanical parts and assemblies' ) ;
#229 = EDGE_LOOP ( 'NONE', ( #173 ) ) ;
#230 = AXIS2_PLACEMENT_3D ( 'NONE', #48, #208, #251 ) ;
#231 = DIRECTION ( 'NONE',  ( 0.0000000000000000000, 1.000000000000000000, 0.0000000000000000000 ) ) ;
#232 = VERTEX_POINT ( 'NONE', #76 ) ;
#233 = CIRCLE ( 'NONE', #239, 4.999999999999997335 ) ;
#234 = DIRECTION ( 'NONE',  ( -3.491481338843133355E-15, 1.224646799147353207E-16, -1.000000000000000000 ) ) ;
#235 = CARTESIAN_POINT ( 'NONE',  ( 3.072503578181957353E-13, -1.077689183249670724E-14, 88.00000000000000000 ) ) ;
#236 = CALENDAR_DATE ( 2021, 13, 10 ) ;
#237 = ADVANCED_FACE ( 'NONE', ( #139, #116 ), #13, .T. ) ;
#238 = PERSON_AND_ORGANIZATION ( #241, #31 ) ;
#239 = AXIS2_PLACEMENT_3D ( 'NONE', #150, #73, #68 ) ;
#240 = PERSON_AND_ORGANIZATION_ROLE ( 'design_owner' ) ;
#241 = PERSON ( 'UNSPECIFIED', 'UNSPECIFIED', 'UNSPECIFIED', ('UNSPECIFIED'), ('UNSPECIFIED'), ('UNSPECIFIED') ) ;
#242 = DATE_AND_TIME ( #236, #61 ) ;
#243 = APPROVAL_DATE_TIME ( #242, #81 ) ;
#244 = CLOSED_SHELL ( 'NONE', ( #136, #12, #117 ) ) ;
#245 = EDGE_LOOP ( 'NONE', ( #88 ) ) ;
#246 = EDGE_LOOP ( 'NONE', ( #27 ) ) ;
#247 = EDGE_CURVE ( 'NONE', #77, #77, #35, .T. ) ;
#248 = FACE_OUTER_BOUND ( 'NONE', #110, .T. ) ;
#249 = CC_DESIGN_APPROVAL ( #7, ( #185 ) ) ;
#250 = CARTESIAN_POINT ( 'NONE',  ( 3.107418391570388560E-13, 2.999519565323699889E-32, 89.00000000000000000 ) ) ;
#251 = DIRECTION ( 'NONE',  ( -4.275831445896958607E-31, -1.000000000000000000, -1.224646799147353207E-16 ) ) ;
#252 = APPROVAL ( #123, 'UNSPECIFIED' ) ;
#253 = EDGE_LOOP ( 'NONE', ( #111 ) ) ;
#254 = AXIS2_PLACEMENT_3D ( 'NONE', #130, #4, #172 ) ;
#255 = VERTEX_POINT ( 'NONE', #193 ) ;
#256 = CYLINDRICAL_SURFACE ( 'NONE', #225, 4.600000000000006750 ) ;
#257 = FACE_OUTER_BOUND ( 'NONE', #246, .T. ) ;
#258 = LOCAL_TIME ( 13, 36, 26.00000000000000000, #160 ) ;
#259 = VERTEX_POINT ( 'NONE', #82 ) ;
#260 = CALENDAR_DATE ( 2021, 13, 10 ) ;
#261 = DIRECTION ( 'NONE',  ( 1.000000000000000000, 0.0000000000000000000, 0.0000000000000000000 ) ) ;
#262 = PERSON_AND_ORGANIZATION ( #241, #31 ) ;
#263 = AXIS2_PLACEMENT_3D ( 'NONE', #9, #175, #34 ) ;
ENDSEC;
END-ISO-10303-21;
