ISO-10303-21;
HEADER;
FILE_DESCRIPTION (( 'STEP AP203' ),
    '1' );
FILE_NAME ('55450.step',
    '2021-10-13T11:36:26',
    ( '' ),
    ( '' ),
    'SwSTEP 2.0',
    'SolidWorks 2019',
    '' );
FILE_SCHEMA (( 'CONFIG_CONTROL_DESIGN' ));
ENDSEC;

DATA;
#1 = VERTEX_POINT ( 'NONE', #105 ) ;
#2 = CARTESIAN_POINT ( 'NONE',  ( 3.107418391570388560E-13, 2.999519565323699889E-32, 89.00000000000000000 ) ) ;
#3 = APPROVAL_PERSON_ORGANIZATION ( #125, #45, #75 ) ;
#4 = CARTESIAN_POINT ( 'NONE',  ( 0.0000000000000000000, 0.0000000000000000000, 0.0000000000000000000 ) ) ;
#5 = COORDINATED_UNIVERSAL_TIME_OFFSET ( 1, 0, .AHEAD. ) ;
#6 = CLOSED_SHELL ( 'NONE', ( #26, #132, #203 ) ) ;
#7 = AXIS2_PLACEMENT_3D ( 'NONE', #103, #100, #142 ) ;
#8 = PRODUCT ( '55450', '55450', '', ( #223 ) ) ;
#9 = APPLICATION_CONTEXT ( 'configuration controlled 3d designs of mechanical parts and assemblies' ) ;
#10 = EDGE_LOOP ( 'NONE', ( #36 ) ) ;
#11 = DIRECTION ( 'NONE',  ( 4.275831445896959482E-31, 1.000000000000000000, 1.224646799147353207E-16 ) ) ;
#12 = AXIS2_PLACEMENT_3D ( 'NONE', #59, #240, #260 ) ;
#13 = DIRECTION ( 'NONE',  ( 3.491481338843133355E-15, -1.224646799147353207E-16, 1.000000000000000000 ) ) ;
#14 = CC_DESIGN_PERSON_AND_ORGANIZATION_ASSIGNMENT ( #169, #168, ( #171 ) ) ;
#15 = CARTESIAN_POINT ( 'NONE',  ( 5.337340179506277239E-15, -1.872086925991899184E-16, 1.528674983918072439 ) ) ;
#16 = EDGE_LOOP ( 'NONE', ( #215 ) ) ;
#17 = FACE_OUTER_BOUND ( 'NONE', #218, .T. ) ;
#18 = PRODUCT_DEFINITION_SHAPE ( 'NONE', 'NONE',  #171 ) ;
#19 = PRODUCT_DEFINITION_FORMATION_WITH_SPECIFIED_SOURCE ( 'ANY', '', #8, .NOT_KNOWN. ) ;
#20 = ORIENTED_EDGE ( 'NONE', *, *, #76, .F. ) ;
#21 = DIRECTION ( 'NONE',  ( -3.491481338843133355E-15, 1.224646799147353207E-16, -1.000000000000000000 ) ) ;
#22 = EDGE_CURVE ( 'NONE', #221, #221, #158, .T. ) ;
#23 = AXIS2_PLACEMENT_3D ( 'NONE', #160, #13, #255 ) ;
#24 = CIRCLE ( 'NONE', #224, 4.200000000000007283 ) ;
#25 = CYLINDRICAL_SURFACE ( 'NONE', #232, 4.200000000000007283 ) ;
#26 = ADVANCED_FACE ( 'NONE', ( #98 ), #43, .T. ) ;
#27 = CARTESIAN_POINT ( 'NONE',  ( 1.698731009888024191E-13, -2.105325876249898462E-14, 48.65358983848618379 ) ) ;
#28 = LOCAL_TIME ( 13, 36, 26.00000000000000000, #91 ) ;
#29 = APPROVAL_STATUS ( 'not_yet_approved' ) ;
#30 = CALENDAR_DATE ( 2021, 13, 10 ) ;
#31 = AXIS2_PLACEMENT_3D ( 'NONE', #42, #78, #154 ) ;
#32 = UNCERTAINTY_MEASURE_WITH_UNIT (LENGTH_MEASURE( 1.000000000000000082E-05 ), #226, 'distance_accuracy_value', 'NONE');
#33 = DATE_AND_TIME ( #30, #143 ) ;
#34 = CC_DESIGN_PERSON_AND_ORGANIZATION_ASSIGNMENT ( #47, #247, ( #8 ) ) ;
#35 = FACE_BOUND ( 'NONE', #140, .T. ) ;
#36 = ORIENTED_EDGE ( 'NONE', *, *, #48, .F. ) ;
#37 = DIRECTION ( 'NONE',  ( -3.491481338843133355E-15, 1.224646799147353207E-16, -1.000000000000000000 ) ) ;
#38 = DIRECTION ( 'NONE',  ( -3.491481338843133355E-15, 1.224646799147353207E-16, -1.000000000000000000 ) ) ;
#39 = ORIENTED_EDGE ( 'NONE', *, *, #211, .F. ) ;
#40 = ORIENTED_EDGE ( 'NONE', *, *, #124, .F. ) ;
#41 = ORIENTED_EDGE ( 'NONE', *, *, #76, .T. ) ;
#42 = CARTESIAN_POINT ( 'NONE',  ( 1.658453635950488407E-13, -2.055408027523702711E-14, 47.50000000000000000 ) ) ;
#43 = CONICAL_SURFACE ( 'NONE', #174, 4.999999999999990230, 1.221730476396026610 ) ;
#44 = DIRECTION ( 'NONE',  ( 3.491481338843133355E-15, -4.327174794786742882E-16, 1.000000000000000000 ) ) ;
#45 = APPROVAL ( #252, 'UNSPECIFIED' ) ;
#46 = VERTEX_POINT ( 'NONE', #165 ) ;
#47 = PERSON_AND_ORGANIZATION ( #246, #115 ) ;
#48 = EDGE_CURVE ( 'NONE', #46, #46, #164, .T. ) ;
#49 = CIRCLE ( 'NONE', #89, 4.000000000000001776 ) ;
#50 = PLANE ( 'NONE',  #243 ) ;
#51 = COORDINATED_UNIVERSAL_TIME_OFFSET ( 1, 0, .AHEAD. ) ;
#52 = CIRCLE ( 'NONE', #258, 4.200000000000015277 ) ;
#53 = CALENDAR_DATE ( 2021, 13, 10 ) ;
#54 = DATE_AND_TIME ( #111, #28 ) ;
#55 = DATE_AND_TIME ( #189, #250 ) ;
#56 = EDGE_LOOP ( 'NONE', ( #113 ) ) ;
#57 = EDGE_LOOP ( 'NONE', ( #134 ) ) ;
#58 = PLANE ( 'NONE',  #191 ) ;
#59 = CARTESIAN_POINT ( 'NONE',  ( 3.107418391570388560E-13, -1.089935651241144239E-14, 89.00000000000000000 ) ) ;
#60 = AXIS2_PLACEMENT_3D ( 'NONE', #15, #63, #159 ) ;
#61 = DIRECTION ( 'NONE',  ( -3.491481338843133355E-15, 4.327174794786742882E-16, -1.000000000000000000 ) ) ;
#62 = FACE_BOUND ( 'NONE', #198, .T. ) ;
#63 = DIRECTION ( 'NONE',  ( -3.491481338843133355E-15, 1.224646799147353207E-16, -1.000000000000000000 ) ) ;
#64 = APPROVAL_PERSON_ORGANIZATION ( #104, #126, #109 ) ;
#65 = APPLICATION_PROTOCOL_DEFINITION ( 'international standard', 'config_control_design', 1994, #9 ) ;
#66 = DIRECTION ( 'NONE',  ( 0.0000000000000000000, 0.0000000000000000000, 1.000000000000000000 ) ) ;
#67 = MANIFOLD_SOLID_BREP ( 'Corps-Déplacer/Copier1[1]', #145 ) ;
#68 = CARTESIAN_POINT ( 'NONE',  ( 3.107418391570388560E-13, 3.999999999999990674, 89.00000000000000000 ) ) ;
#69 = CONICAL_SURFACE ( 'NONE', #12, 4.000000000000001776, 0.7853981633974473908 ) ;
#70 = CARTESIAN_POINT ( 'NONE',  ( 1.640996229256272803E-13, 4.199999999999995737, 47.00000000000000000 ) ) ;
#71 = APPLICATION_PROTOCOL_DEFINITION ( 'international standard', 'config_control_design', 1994, #110 ) ;
#72 = ADVANCED_FACE ( 'NONE', ( #213, #196 ), #179, .T. ) ;
#73 = PERSON_AND_ORGANIZATION ( #246, #115 ) ;
#74 = DATE_AND_TIME ( #93, #90 ) ;
#75 = APPROVAL_ROLE ( '' ) ;
#76 = EDGE_CURVE ( 'NONE', #225, #225, #199, .T. ) ;
#77 = AXIS2_PLACEMENT_3D ( 'NONE', #4, #66, #241 ) ;
#78 = DIRECTION ( 'NONE',  ( -3.491481338843133355E-15, 4.327174794786742882E-16, -1.000000000000000000 ) ) ;
#79 = DIRECTION ( 'NONE',  ( 3.491481338843133355E-15, -1.224646799147353207E-16, 1.000000000000000000 ) ) ;
#80 = EDGE_LOOP ( 'NONE', ( #118 ) ) ;
#81 = ADVANCED_BREP_SHAPE_REPRESENTATION ( '55450', ( #67, #152, #77 ), #208 ) ;
#82 = AXIS2_PLACEMENT_3D ( 'NONE', #195, #193, #11 ) ;
#83 = ORIENTED_EDGE ( 'NONE', *, *, #211, .T. ) ;
#84 = FACE_OUTER_BOUND ( 'NONE', #180, .T. ) ;
#85 = EDGE_CURVE ( 'NONE', #201, #201, #52, .T. ) ;
#86 = DIRECTION ( 'NONE',  ( 0.0000000000000000000, -1.000000000000000000, 0.0000000000000000000 ) ) ;
#87 = CARTESIAN_POINT ( 'NONE',  ( 0.0000000000000000000, 0.0000000000000000000, 0.0000000000000000000 ) ) ;
#88 = CARTESIAN_POINT ( 'NONE',  ( 1.658453635950488407E-13, 4.333974596215558250, 47.50000000000000000 ) ) ;
#89 = AXIS2_PLACEMENT_3D ( 'NONE', #121, #21, #200 ) ;
#90 = LOCAL_TIME ( 13, 36, 26.00000000000000000, #128 ) ;
#91 = COORDINATED_UNIVERSAL_TIME_OFFSET ( 1, 0, .AHEAD. ) ;
#92 = ADVANCED_FACE ( 'NONE', ( #84 ), #216, .F. ) ;
#93 = CALENDAR_DATE ( 2021, 13, 10 ) ;
#94 = PERSON_AND_ORGANIZATION_ROLE ( 'design_supplier' ) ;
#95 = CC_DESIGN_SECURITY_CLASSIFICATION ( #253, ( #19 ) ) ;
#96 = CARTESIAN_POINT ( 'NONE',  ( 0.0000000000000000000, 0.0000000000000000000, 0.0000000000000000000 ) ) ;
#97 = ORIENTED_EDGE ( 'NONE', *, *, #162, .T. ) ;
#98 = FACE_OUTER_BOUND ( 'NONE', #80, .T. ) ;
#99 = DIRECTION ( 'NONE',  ( 0.0000000000000000000, 1.000000000000000000, 0.0000000000000000000 ) ) ;
#100 = DIRECTION ( 'NONE',  ( -3.491481338843133355E-15, 1.224646799147353207E-16, -1.000000000000000000 ) ) ;
#101 = CC_DESIGN_PERSON_AND_ORGANIZATION_ASSIGNMENT ( #73, #94, ( #19 ) ) ;
#102 = TOROIDAL_SURFACE ( 'NONE', #151, 5.200000000000014388, 0.9999999999999986677 ) ;
#103 = CARTESIAN_POINT ( 'NONE',  ( 1.222018468595096801E-13, -1.514511178175360324E-14, 35.00000000000000000 ) ) ;
#104 = PERSON_AND_ORGANIZATION ( #246, #115 ) ;
#105 = CARTESIAN_POINT ( 'NONE',  ( 1.222018468595096801E-13, -4.200000000000022382, 35.00000000000000000 ) ) ;
#106 = FACE_OUTER_BOUND ( 'NONE', #56, .T. ) ;
#107 = CARTESIAN_POINT ( 'NONE',  ( 1.222018468595096801E-13, -4.200000000000022382, 35.00000000000000000 ) ) ;
#108 = LOCAL_TIME ( 13, 36, 26.00000000000000000, #130 ) ;
#109 = APPROVAL_ROLE ( '' ) ;
#110 = APPLICATION_CONTEXT ( 'configuration controlled 3d designs of mechanical parts and assemblies' ) ;
#111 = CALENDAR_DATE ( 2021, 13, 10 ) ;
#112 = APPROVAL_ROLE ( '' ) ;
#113 = ORIENTED_EDGE ( 'NONE', *, *, #177, .F. ) ;
#114 = CARTESIAN_POINT ( 'NONE',  ( 1.728968125250799991E-13, -2.142800309238910129E-14, 49.51961524227066036 ) ) ;
#115 = ORGANIZATION ( 'UNSPECIFIED', 'UNSPECIFIED', '' ) ;
#116 = DIRECTION ( 'NONE',  ( -4.622231866529374805E-31, -1.000000000000000000, -1.301042606982607786E-16 ) ) ;
#117 = CARTESIAN_POINT ( 'NONE',  ( 3.072503578181957353E-13, -1.077689183249670724E-14, 88.00000000000000000 ) ) ;
#118 = ORIENTED_EDGE ( 'NONE', *, *, #22, .T. ) ;
#119 = DIRECTION ( 'NONE',  ( -3.491481338843133355E-15, 4.327174794786742882E-16, -1.000000000000000000 ) ) ;
#120 = ORIENTED_EDGE ( 'NONE', *, *, #48, .T. ) ;
#121 = CARTESIAN_POINT ( 'NONE',  ( 3.107418391570388560E-13, -1.089935651241144239E-14, 89.00000000000000000 ) ) ;
#122 = FACE_OUTER_BOUND ( 'NONE', #57, .T. ) ;
#123 = DIRECTION ( 'NONE',  ( 3.491481338843133355E-15, -1.224646799147353207E-16, 1.000000000000000000 ) ) ;
#124 = EDGE_CURVE ( 'NONE', #1, #1, #24, .T. ) ;
#125 = PERSON_AND_ORGANIZATION ( #246, #115 ) ;
#126 = APPROVAL ( #248, 'UNSPECIFIED' ) ;
#127 = SHAPE_DEFINITION_REPRESENTATION ( #18, #81 ) ;
#128 = COORDINATED_UNIVERSAL_TIME_OFFSET ( 1, 0, .AHEAD. ) ;
#129 = CC_DESIGN_APPROVAL ( #126, ( #171 ) ) ;
#130 = COORDINATED_UNIVERSAL_TIME_OFFSET ( 1, 0, .AHEAD. ) ;
#131 = EDGE_LOOP ( 'NONE', ( #192 ) ) ;
#132 = ADVANCED_FACE ( 'NONE', ( #17, #256 ), #238, .T. ) ;
#133 = CARTESIAN_POINT ( 'NONE',  ( 1.222018468595096801E-13, 3.749399456654634167E-32, 35.00000000000000000 ) ) ;
#134 = ORIENTED_EDGE ( 'NONE', *, *, #85, .T. ) ;
#135 = CC_DESIGN_APPROVAL ( #263, ( #253 ) ) ;
#136 = FACE_OUTER_BOUND ( 'NONE', #131, .T. ) ;
#137 = ADVANCED_FACE ( 'NONE', ( #136, #236 ), #102, .F. ) ;
#138 = EDGE_LOOP ( 'NONE', ( #97 ) ) ;
#139 = DIRECTION ( 'NONE',  ( 1.510825004591027855E-30, 1.000000000000000000, 4.327174794786743868E-16 ) ) ;
#140 = EDGE_LOOP ( 'NONE', ( #217 ) ) ;
#141 = FACE_OUTER_BOUND ( 'NONE', #233, .T. ) ;
#142 = DIRECTION ( 'NONE',  ( 0.0000000000000000000, -1.000000000000000000, 0.0000000000000000000 ) ) ;
#143 = LOCAL_TIME ( 13, 36, 26.00000000000000000, #51 ) ;
#144 = VERTEX_POINT ( 'NONE', #187 ) ;
#145 = CLOSED_SHELL ( 'NONE', ( #72, #147, #227, #214, #156, #137, #92 ) ) ;
#146 = AXIS2_PLACEMENT_3D ( 'NONE', #114, #220, #254 ) ;
#147 = ADVANCED_FACE ( 'NONE', ( #197, #35 ), #69, .T. ) ;
#148 = VERTEX_POINT ( 'NONE', #88 ) ;
#149 = PERSON_AND_ORGANIZATION ( #246, #115 ) ;
#150 = PERSON_AND_ORGANIZATION ( #246, #115 ) ;
#151 = AXIS2_PLACEMENT_3D ( 'NONE', #175, #182, #161 ) ;
#152 = MANIFOLD_SOLID_BREP ( 'Corps-Déplacer/Copier1[2]', #6 ) ;
#153 = DESIGN_CONTEXT ( 'detailed design', #9, 'design' ) ;
#154 = DIRECTION ( 'NONE',  ( 0.0000000000000000000, 1.000000000000000000, 0.0000000000000000000 ) ) ;
#155 = CARTESIAN_POINT ( 'NONE',  ( 6.353976404174116092E-15, -2.228674911895110024E-16, 1.819851171331031914 ) ) ;
#156 = ADVANCED_FACE ( 'NONE', ( #62, #141 ), #167, .T. ) ;
#157 = EDGE_LOOP ( 'NONE', ( #120 ) ) ;
#158 = CIRCLE ( 'NONE', #60, 4.200000000000007283 ) ;
#159 = DIRECTION ( 'NONE',  ( -3.668437989309014208E-31, -1.000000000000000000, -1.032573497605240499E-16 ) ) ;
#160 = CARTESIAN_POINT ( 'NONE',  ( 1.222018468595096801E-13, 3.749399456654634167E-32, 35.00000000000000000 ) ) ;
#161 = DIRECTION ( 'NONE',  ( 1.510825004591027855E-30, 1.000000000000000000, 4.327174794786742882E-16 ) ) ;
#162 = EDGE_CURVE ( 'NONE', #148, #148, #194, .T. ) ;
#163 =( NAMED_UNIT ( * ) SI_UNIT ( $, .STERADIAN. ) SOLID_ANGLE_UNIT ( ) );
#164 = CIRCLE ( 'NONE', #185, 5.000000000000000888 ) ;
#165 = CARTESIAN_POINT ( 'NONE',  ( 3.072503578181957353E-13, 4.999999999999990230, 88.00000000000000000 ) ) ;
#166 = DIRECTION ( 'NONE',  ( 4.275831445896958607E-31, 1.000000000000000000, 1.224646799147353207E-16 ) ) ;
#167 = CONICAL_SURFACE ( 'NONE', #146, 5.500000000000017764, 0.5235987755983003700 ) ;
#168 = PERSON_AND_ORGANIZATION_ROLE ( 'creator' ) ;
#169 = PERSON_AND_ORGANIZATION ( #246, #115 ) ;
#170 = AXIS2_PLACEMENT_3D ( 'NONE', #96, #61, #139 ) ;
#171 = PRODUCT_DEFINITION ( 'UNKNOWN', '', #19, #153 ) ;
#172 = EDGE_LOOP ( 'NONE', ( #40 ) ) ;
#173 = DATE_TIME_ROLE ( 'creation_date' ) ;
#174 = AXIS2_PLACEMENT_3D ( 'NONE', #155, #79, #116 ) ;
#175 = CARTESIAN_POINT ( 'NONE',  ( 1.640996229256272803E-13, -1.994931997373328159E-14, 47.00000000000000000 ) ) ;
#176 = ORIENTED_EDGE ( 'NONE', *, *, #162, .F. ) ;
#177 = EDGE_CURVE ( 'NONE', #242, #242, #49, .T. ) ;
#178 = CARTESIAN_POINT ( 'NONE',  ( 1.640996229256272803E-13, -2.033772153549769155E-14, 47.00000000000000000 ) ) ;
#179 = CYLINDRICAL_SURFACE ( 'NONE', #82, 4.999999999999997335 ) ;
#180 = EDGE_LOOP ( 'NONE', ( #183 ) ) ;
#181 = AXIS2_PLACEMENT_3D ( 'NONE', #27, #44, #205 ) ;
#182 = DIRECTION ( 'NONE',  ( -3.491481338843133355E-15, 4.327174794786742882E-16, -1.000000000000000000 ) ) ;
#183 = ORIENTED_EDGE ( 'NONE', *, *, #124, .T. ) ;
#184 = DIRECTION ( 'NONE',  ( 0.0000000000000000000, 1.000000000000000000, 0.0000000000000000000 ) ) ;
#185 = AXIS2_PLACEMENT_3D ( 'NONE', #117, #37, #99 ) ;
#186 = DIRECTION ( 'NONE',  ( -3.491481338843133355E-15, 4.327174794786742882E-16, -1.000000000000000000 ) ) ;
#187 = CARTESIAN_POINT ( 'NONE',  ( 1.698731009888024191E-13, -5.000000000000018652, 48.65358983848618379 ) ) ;
#188 = PERSON_AND_ORGANIZATION ( #246, #115 ) ;
#189 = CALENDAR_DATE ( 2021, 13, 10 ) ;
#190 = PERSON_AND_ORGANIZATION_ROLE ( 'creator' ) ;
#191 = AXIS2_PLACEMENT_3D ( 'NONE', #133, #123, #262 ) ;
#192 = ORIENTED_EDGE ( 'NONE', *, *, #85, .F. ) ;
#193 = DIRECTION ( 'NONE',  ( -3.491481338843133355E-15, 1.224646799147353207E-16, -1.000000000000000000 ) ) ;
#194 = CIRCLE ( 'NONE', #31, 4.333974596215578678 ) ;
#195 = CARTESIAN_POINT ( 'NONE',  ( 0.0000000000000000000, 0.0000000000000000000, 0.0000000000000000000 ) ) ;
#196 = FACE_OUTER_BOUND ( 'NONE', #157, .T. ) ;
#197 = FACE_OUTER_BOUND ( 'NONE', #10, .T. ) ;
#198 = EDGE_LOOP ( 'NONE', ( #176 ) ) ;
#199 = CIRCLE ( 'NONE', #7, 4.200000000000007283 ) ;
#200 = DIRECTION ( 'NONE',  ( 0.0000000000000000000, 1.000000000000000000, 0.0000000000000000000 ) ) ;
#201 = VERTEX_POINT ( 'NONE', #70 ) ;
#202 = DIRECTION ( 'NONE',  ( -3.491481338843133355E-15, 1.224646799147353207E-16, -1.000000000000000000 ) ) ;
#203 = ADVANCED_FACE ( 'NONE', ( #235 ), #58, .T. ) ;
#204 = DIRECTION ( 'NONE',  ( 1.510825004591027855E-30, 1.000000000000000000, 4.327174794786743868E-16 ) ) ;
#205 = DIRECTION ( 'NONE',  ( 0.0000000000000000000, -1.000000000000000000, 0.0000000000000000000 ) ) ;
#206 =( NAMED_UNIT ( * ) PLANE_ANGLE_UNIT ( ) SI_UNIT ( $, .RADIAN. ) );
#207 = CC_DESIGN_DATE_AND_TIME_ASSIGNMENT ( #33, #230, ( #253 ) ) ;
#208 =( GEOMETRIC_REPRESENTATION_CONTEXT ( 3 ) GLOBAL_UNCERTAINTY_ASSIGNED_CONTEXT ( ( #32 ) ) GLOBAL_UNIT_ASSIGNED_CONTEXT ( ( #226, #206, #163 ) ) REPRESENTATION_CONTEXT ( 'NONE', 'WORKASPACE' ) );
#209 = DATE_AND_TIME ( #53, #108 ) ;
#210 = APPROVAL_DATE_TIME ( #74, #45 ) ;
#211 = EDGE_CURVE ( 'NONE', #144, #144, #212, .T. ) ;
#212 = CIRCLE ( 'NONE', #181, 4.999999999999997335 ) ;
#213 = FACE_OUTER_BOUND ( 'NONE', #259, .T. ) ;
#214 = ADVANCED_FACE ( 'NONE', ( #122, #222 ), #25, .T. ) ;
#215 = ORIENTED_EDGE ( 'NONE', *, *, #22, .F. ) ;
#216 = PLANE ( 'NONE',  #23 ) ;
#217 = ORIENTED_EDGE ( 'NONE', *, *, #177, .T. ) ;
#218 = EDGE_LOOP ( 'NONE', ( #41 ) ) ;
#219 = PRODUCT_RELATED_PRODUCT_CATEGORY ( 'detail', '', ( #8 ) ) ;
#220 = DIRECTION ( 'NONE',  ( 3.491481338843133355E-15, -4.327174794786742882E-16, 1.000000000000000000 ) ) ;
#221 = VERTEX_POINT ( 'NONE', #244 ) ;
#222 = FACE_OUTER_BOUND ( 'NONE', #172, .T. ) ;
#223 = MECHANICAL_CONTEXT ( 'NONE', #110, 'mechanical' ) ;
#224 = AXIS2_PLACEMENT_3D ( 'NONE', #261, #38, #86 ) ;
#225 = VERTEX_POINT ( 'NONE', #107 ) ;
#226 =( LENGTH_UNIT ( ) NAMED_UNIT ( * ) SI_UNIT ( .MILLI., .METRE. ) );
#227 = ADVANCED_FACE ( 'NONE', ( #106 ), #50, .F. ) ;
#228 = APPROVAL_DATE_TIME ( #55, #126 ) ;
#229 = CC_DESIGN_APPROVAL ( #45, ( #19 ) ) ;
#230 = DATE_TIME_ROLE ( 'classification_date' ) ;
#231 = SECURITY_CLASSIFICATION_LEVEL ( 'unclassified' ) ;
#232 = AXIS2_PLACEMENT_3D ( 'NONE', #87, #186, #204 ) ;
#233 = EDGE_LOOP ( 'NONE', ( #39 ) ) ;
#234 = EDGE_LOOP ( 'NONE', ( #20 ) ) ;
#235 = FACE_OUTER_BOUND ( 'NONE', #234, .T. ) ;
#236 = FACE_OUTER_BOUND ( 'NONE', #138, .T. ) ;
#237 = APPROVAL_PERSON_ORGANIZATION ( #149, #263, #112 ) ;
#238 = CYLINDRICAL_SURFACE ( 'NONE', #170, 4.200000000000007283 ) ;
#239 = CC_DESIGN_PERSON_AND_ORGANIZATION_ASSIGNMENT ( #188, #251, ( #253 ) ) ;
#240 = DIRECTION ( 'NONE',  ( -3.491481338843133355E-15, 1.224646799147353207E-16, -1.000000000000000000 ) ) ;
#241 = DIRECTION ( 'NONE',  ( 1.000000000000000000, 0.0000000000000000000, 0.0000000000000000000 ) ) ;
#242 = VERTEX_POINT ( 'NONE', #68 ) ;
#243 = AXIS2_PLACEMENT_3D ( 'NONE', #2, #202, #166 ) ;
#244 = CARTESIAN_POINT ( 'NONE',  ( 5.337340179506275661E-15, -4.200000000000007283, 1.528674983918071995 ) ) ;
#245 = CC_DESIGN_PERSON_AND_ORGANIZATION_ASSIGNMENT ( #150, #190, ( #19 ) ) ;
#246 = PERSON ( 'UNSPECIFIED', 'UNSPECIFIED', 'UNSPECIFIED', ('UNSPECIFIED'), ('UNSPECIFIED'), ('UNSPECIFIED') ) ;
#247 = PERSON_AND_ORGANIZATION_ROLE ( 'design_owner' ) ;
#248 = APPROVAL_STATUS ( 'not_yet_approved' ) ;
#249 = APPROVAL_DATE_TIME ( #54, #263 ) ;
#250 = LOCAL_TIME ( 13, 36, 26.00000000000000000, #5 ) ;
#251 = PERSON_AND_ORGANIZATION_ROLE ( 'classification_officer' ) ;
#252 = APPROVAL_STATUS ( 'not_yet_approved' ) ;
#253 = SECURITY_CLASSIFICATION ( '', '', #231 ) ;
#254 = DIRECTION ( 'NONE',  ( 0.0000000000000000000, -1.000000000000000000, 0.0000000000000000000 ) ) ;
#255 = DIRECTION ( 'NONE',  ( -4.275831445896958607E-31, -1.000000000000000000, -1.224646799147353207E-16 ) ) ;
#256 = FACE_OUTER_BOUND ( 'NONE', #16, .T. ) ;
#257 = CC_DESIGN_DATE_AND_TIME_ASSIGNMENT ( #209, #173, ( #171 ) ) ;
#258 = AXIS2_PLACEMENT_3D ( 'NONE', #178, #119, #184 ) ;
#259 = EDGE_LOOP ( 'NONE', ( #83 ) ) ;
#260 = DIRECTION ( 'NONE',  ( 0.0000000000000000000, 1.000000000000000000, 0.0000000000000000000 ) ) ;
#261 = CARTESIAN_POINT ( 'NONE',  ( 1.222018468595096801E-13, -1.514511178175360324E-14, 35.00000000000000000 ) ) ;
#262 = DIRECTION ( 'NONE',  ( -4.275831445896958607E-31, -1.000000000000000000, -1.224646799147353207E-16 ) ) ;
#263 = APPROVAL ( #29, 'UNSPECIFIED' ) ;
ENDSEC;
END-ISO-10303-21;
