ISO-10303-21;
HEADER;
FILE_DESCRIPTION (( 'STEP AP203' ),
    '1' );
FILE_NAME ('55443.step',
    '2021-10-08T05:15:58',
    ( '' ),
    ( '' ),
    'SwSTEP 2.0',
    'SolidWorks 2019',
    '' );
FILE_SCHEMA (( 'CONFIG_CONTROL_DESIGN' ));
ENDSEC;

DATA;
#1 = DATE_AND_TIME ( #144, #179 ) ;
#2 = COORDINATED_UNIVERSAL_TIME_OFFSET ( 1, 0, .AHEAD. ) ;
#3 = FACE_OUTER_BOUND ( 'NONE', #102, .T. ) ;
#4 = DIRECTION ( 'NONE',  ( 0.0000000000000000000, 1.000000000000000000, 0.0000000000000000000 ) ) ;
#5 = CC_DESIGN_PERSON_AND_ORGANIZATION_ASSIGNMENT ( #223, #76, ( #153 ) ) ;
#6 = ORIENTED_EDGE ( 'NONE', *, *, #222, .T. ) ;
#7 = DIRECTION ( 'NONE',  ( 3.491481338843133355E-15, -1.224646799147353207E-16, 1.000000000000000000 ) ) ;
#8 = ADVANCED_FACE ( 'NONE', ( #62, #185 ), #178, .T. ) ;
#9 = EDGE_LOOP ( 'NONE', ( #44 ) ) ;
#10 = DIRECTION ( 'NONE',  ( 3.491481338843133355E-15, -1.224646799147353207E-16, 1.000000000000000000 ) ) ;
#11 = AXIS2_PLACEMENT_3D ( 'NONE', #206, #93, #205 ) ;
#12 = APPLICATION_CONTEXT ( 'configuration controlled 3d designs of mechanical parts and assemblies' ) ;
#13 = PERSON_AND_ORGANIZATION_ROLE ( 'design_owner' ) ;
#14 = EDGE_CURVE ( 'NONE', #154, #154, #210, .T. ) ;
#15 = AXIS2_PLACEMENT_3D ( 'NONE', #27, #45, #101 ) ;
#16 = LOCAL_TIME ( 7, 15, 58.00000000000000000, #98 ) ;
#17 = FACE_OUTER_BOUND ( 'NONE', #138, .T. ) ;
#18 = EDGE_CURVE ( 'NONE', #50, #50, #96, .T. ) ;
#19 = CALENDAR_DATE ( 2021, 8, 10 ) ;
#20 = PERSON_AND_ORGANIZATION ( #160, #51 ) ;
#21 = AXIS2_PLACEMENT_3D ( 'NONE', #146, #180, #59 ) ;
#22 = DATE_AND_TIME ( #115, #171 ) ;
#23 = DATE_AND_TIME ( #174, #131 ) ;
#24 = AXIS2_PLACEMENT_3D ( 'NONE', #72, #71, #69 ) ;
#25 = FACE_OUTER_BOUND ( 'NONE', #119, .T. ) ;
#26 = APPROVAL ( #209, 'UNSPECIFIED' ) ;
#27 = CARTESIAN_POINT ( 'NONE',  ( 4.189777606611760026E-14, 9.186028668803857321E-33, 12.00000000000000000 ) ) ;
#28 = ORIENTED_EDGE ( 'NONE', *, *, #222, .F. ) ;
#29 = FACE_OUTER_BOUND ( 'NONE', #217, .T. ) ;
#30 = CLOSED_SHELL ( 'NONE', ( #167, #114, #8, #147, #118 ) ) ;
#31 = FACE_OUTER_BOUND ( 'NONE', #104, .T. ) ;
#32 = FACE_OUTER_BOUND ( 'NONE', #149, .T. ) ;
#33 = CC_DESIGN_APPROVAL ( #192, ( #85 ) ) ;
#34 = ADVANCED_FACE ( 'NONE', ( #25, #3 ), #211, .T. ) ;
#35 = PLANE ( 'NONE',  #41 ) ;
#36 = CONICAL_SURFACE ( 'NONE', #158, 1.224999999999998757, 1.029744258676649649 ) ;
#37 = ADVANCED_BREP_SHAPE_REPRESENTATION ( '55443', ( #195, #47, #125 ), #60 ) ;
#38 = DATE_AND_TIME ( #129, #16 ) ;
#39 = APPROVAL ( #58, 'UNSPECIFIED' ) ;
#40 = DIRECTION ( 'NONE',  ( 4.275831445896959482E-31, 1.000000000000000000, 1.224646799147353207E-16 ) ) ;
#41 = AXIS2_PLACEMENT_3D ( 'NONE', #127, #10, #53 ) ;
#42 = APPROVAL_PERSON_ORGANIZATION ( #20, #39, #55 ) ;
#43 = ORIENTED_EDGE ( 'NONE', *, *, #18, .F. ) ;
#44 = ORIENTED_EDGE ( 'NONE', *, *, #75, .F. ) ;
#45 = DIRECTION ( 'NONE',  ( 3.491481338843133355E-15, -1.224646799147353207E-16, 1.000000000000000000 ) ) ;
#46 = DIRECTION ( 'NONE',  ( -3.491481338843133355E-15, 1.224646799147353207E-16, -1.000000000000000000 ) ) ;
#47 = MANIFOLD_SOLID_BREP ( 'Corps-Déplacer/Copier1[2]', #116 ) ;
#48 =( NAMED_UNIT ( * ) SI_UNIT ( $, .STERADIAN. ) SOLID_ANGLE_UNIT ( ) );
#49 = CARTESIAN_POINT ( 'NONE',  ( 4.204896164293144393E-14, 1.249999999999994671, 12.04330127018921459 ) ) ;
#50 = VERTEX_POINT ( 'NONE', #128 ) ;
#51 = ORGANIZATION ( 'UNSPECIFIED', 'UNSPECIFIED', '' ) ;
#52 = CARTESIAN_POINT ( 'NONE',  ( 0.0000000000000000000, 0.0000000000000000000, 0.0000000000000000000 ) ) ;
#53 = DIRECTION ( 'NONE',  ( -4.275831445896958607E-31, -1.000000000000000000, -1.224646799147353207E-16 ) ) ;
#54 = ADVANCED_FACE ( 'NONE', ( #31 ), #197, .T. ) ;
#55 = APPROVAL_ROLE ( '' ) ;
#56 = SHAPE_DEFINITION_REPRESENTATION ( #196, #37 ) ;
#57 = PRODUCT_RELATED_PRODUCT_CATEGORY ( 'detail', '', ( #215 ) ) ;
#58 = APPROVAL_STATUS ( 'not_yet_approved' ) ;
#59 = DIRECTION ( 'NONE',  ( 0.0000000000000000000, 1.000000000000000000, 0.0000000000000000000 ) ) ;
#60 =( GEOMETRIC_REPRESENTATION_CONTEXT ( 3 ) GLOBAL_UNCERTAINTY_ASSIGNED_CONTEXT ( ( #175 ) ) GLOBAL_UNIT_ASSIGNED_CONTEXT ( ( #109, #220, #48 ) ) REPRESENTATION_CONTEXT ( 'NONE', 'WORKASPACE' ) );
#61 = LOCAL_TIME ( 7, 15, 58.00000000000000000, #176 ) ;
#62 = FACE_OUTER_BOUND ( 'NONE', #214, .T. ) ;
#63 = ORIENTED_EDGE ( 'NONE', *, *, #140, .T. ) ;
#64 = EDGE_LOOP ( 'NONE', ( #6 ) ) ;
#65 = CIRCLE ( 'NONE', #11, 1.225000000000000089 ) ;
#66 = CONICAL_SURFACE ( 'NONE', #89, 1.249999999999996225, 0.5235987755983098069 ) ;
#67 = CARTESIAN_POINT ( 'NONE',  ( 1.501336975702547217E-13, 0.9499999999999955147, 43.00000000000000000 ) ) ;
#68 = EDGE_CURVE ( 'NONE', #124, #124, #145, .T. ) ;
#69 = DIRECTION ( 'NONE',  ( 0.0000000000000000000, 1.000000000000000000, 0.0000000000000000000 ) ) ;
#70 = PERSON_AND_ORGANIZATION ( #160, #51 ) ;
#71 = DIRECTION ( 'NONE',  ( -3.491481338843133355E-15, 1.224646799147353207E-16, -1.000000000000000000 ) ) ;
#72 = CARTESIAN_POINT ( 'NONE',  ( 1.501336975702547217E-13, -5.265981236333618470E-15, 43.00000000000000000 ) ) ;
#73 = AXIS2_PLACEMENT_3D ( 'NONE', #100, #135, #87 ) ;
#74 = DATE_TIME_ROLE ( 'creation_date' ) ;
#75 = EDGE_CURVE ( 'NONE', #221, #221, #112, .T. ) ;
#76 = PERSON_AND_ORGANIZATION_ROLE ( 'design_supplier' ) ;
#77 = PERSON_AND_ORGANIZATION ( #160, #51 ) ;
#78 = AXIS2_PLACEMENT_3D ( 'NONE', #81, #199, #181 ) ;
#79 = CC_DESIGN_APPROVAL ( #26, ( #83 ) ) ;
#80 = ORIENTED_EDGE ( 'NONE', *, *, #18, .T. ) ;
#81 = CARTESIAN_POINT ( 'NONE',  ( 4.189777606611760026E-14, -1.469576158976823947E-15, 12.00000000000000000 ) ) ;
#82 = CIRCLE ( 'NONE', #198, 1.250000000000000666 ) ;
#83 = SECURITY_CLASSIFICATION ( '', '', #143 ) ;
#84 = ORIENTED_EDGE ( 'NONE', *, *, #75, .T. ) ;
#85 = PRODUCT_DEFINITION ( 'UNKNOWN', '', #153, #184 ) ;
#86 = DIRECTION ( 'NONE',  ( -3.144375419407735222E-31, -1.000000000000000000, -8.850629979473514640E-17 ) ) ;
#87 = DIRECTION ( 'NONE',  ( 3.144375419407735222E-31, 1.000000000000000000, 8.850629979473514640E-17 ) ) ;
#88 = CC_DESIGN_DATE_AND_TIME_ASSIGNMENT ( #23, #74, ( #85 ) ) ;
#89 = AXIS2_PLACEMENT_3D ( 'NONE', #105, #189, #142 ) ;
#90 = PERSON_AND_ORGANIZATION ( #160, #51 ) ;
#91 = DIRECTION ( 'NONE',  ( 4.275831445896958607E-31, 1.000000000000000000, 1.224646799147353207E-16 ) ) ;
#92 = AXIS2_PLACEMENT_3D ( 'NONE', #161, #136, #40 ) ;
#93 = DIRECTION ( 'NONE',  ( -3.491481338843133355E-15, 1.224646799147353207E-16, -1.000000000000000000 ) ) ;
#94 = PERSON_AND_ORGANIZATION ( #160, #51 ) ;
#95 = COORDINATED_UNIVERSAL_TIME_OFFSET ( 1, 0, .AHEAD. ) ;
#96 = CIRCLE ( 'NONE', #73, 1.224999999999998757 ) ;
#97 = PERSON_AND_ORGANIZATION_ROLE ( 'creator' ) ;
#98 = COORDINATED_UNIVERSAL_TIME_OFFSET ( 1, 0, .AHEAD. ) ;
#99 = APPROVAL_DATE_TIME ( #38, #192 ) ;
#100 = CARTESIAN_POINT ( 'NONE',  ( 2.569919707261089738E-15, -9.014064914366127916E-17, 0.7360542583087688051 ) ) ;
#101 = DIRECTION ( 'NONE',  ( -4.275831445896958607E-31, -1.000000000000000000, -1.224646799147353207E-16 ) ) ;
#102 = EDGE_LOOP ( 'NONE', ( #63 ) ) ;
#103 = CC_DESIGN_DATE_AND_TIME_ASSIGNMENT ( #1, #157, ( #83 ) ) ;
#104 = EDGE_LOOP ( 'NONE', ( #212 ) ) ;
#105 = CARTESIAN_POINT ( 'NONE',  ( 4.204896164293144393E-14, -1.474879035170447393E-15, 12.04330127018921459 ) ) ;
#106 = ADVANCED_FACE ( 'NONE', ( #29 ), #36, .T. ) ;
#107 = CARTESIAN_POINT ( 'NONE',  ( 4.189777606611760026E-14, 1.224999999999998757, 12.00000000000000000 ) ) ;
#108 = VERTEX_POINT ( 'NONE', #190 ) ;
#109 =( LENGTH_UNIT ( ) NAMED_UNIT ( * ) SI_UNIT ( .MILLI., .METRE. ) );
#110 = CC_DESIGN_PERSON_AND_ORGANIZATION_ASSIGNMENT ( #194, #97, ( #153 ) ) ;
#111 = FACE_OUTER_BOUND ( 'NONE', #117, .T. ) ;
#112 = CIRCLE ( 'NONE', #78, 1.225000000000000089 ) ;
#113 = APPROVAL_DATE_TIME ( #22, #39 ) ;
#114 = ADVANCED_FACE ( 'NONE', ( #216, #123 ), #66, .T. ) ;
#115 = CALENDAR_DATE ( 2021, 8, 10 ) ;
#116 = CLOSED_SHELL ( 'NONE', ( #106, #34, #54 ) ) ;
#117 = EDGE_LOOP ( 'NONE', ( #137 ) ) ;
#118 = ADVANCED_FACE ( 'NONE', ( #111 ), #218, .F. ) ;
#119 = EDGE_LOOP ( 'NONE', ( #43 ) ) ;
#120 = EDGE_LOOP ( 'NONE', ( #201 ) ) ;
#121 = AXIS2_PLACEMENT_3D ( 'NONE', #200, #46, #134 ) ;
#122 = CC_DESIGN_APPROVAL ( #39, ( #153 ) ) ;
#123 = FACE_OUTER_BOUND ( 'NONE', #120, .T. ) ;
#124 = VERTEX_POINT ( 'NONE', #49 ) ;
#125 = AXIS2_PLACEMENT_3D ( 'NONE', #52, #126, #166 ) ;
#126 = DIRECTION ( 'NONE',  ( 0.0000000000000000000, 0.0000000000000000000, 1.000000000000000000 ) ) ;
#127 = CARTESIAN_POINT ( 'NONE',  ( 4.189777606611760026E-14, 9.186028668803857321E-33, 12.00000000000000000 ) ) ;
#128 = CARTESIAN_POINT ( 'NONE',  ( 2.569919707261090133E-15, 1.224999999999998757, 0.7360542583087689161 ) ) ;
#129 = CALENDAR_DATE ( 2021, 8, 10 ) ;
#130 = CONICAL_SURFACE ( 'NONE', #24, 0.9500000000000008438, 0.7853981633974336241 ) ;
#131 = LOCAL_TIME ( 7, 15, 58.00000000000000000, #2 ) ;
#132 = CC_DESIGN_PERSON_AND_ORGANIZATION_ASSIGNMENT ( #90, #13, ( #215 ) ) ;
#133 = APPROVAL_DATE_TIME ( #208, #26 ) ;
#134 = DIRECTION ( 'NONE',  ( 4.275831445896958607E-31, 1.000000000000000000, 1.224646799147353454E-16 ) ) ;
#135 = DIRECTION ( 'NONE',  ( -3.491481338843133355E-15, 1.224646799147353207E-16, -1.000000000000000000 ) ) ;
#136 = DIRECTION ( 'NONE',  ( -3.491481338843133355E-15, 1.224646799147353207E-16, -1.000000000000000000 ) ) ;
#137 = ORIENTED_EDGE ( 'NONE', *, *, #14, .F. ) ;
#138 = EDGE_LOOP ( 'NONE', ( #28 ) ) ;
#139 = CARTESIAN_POINT ( 'NONE',  ( 1.490862531686017501E-13, -5.229241832359196822E-15, 42.69999999999998863 ) ) ;
#140 = EDGE_CURVE ( 'NONE', #188, #188, #65, .T. ) ;
#141 = APPROVAL_STATUS ( 'not_yet_approved' ) ;
#142 = DIRECTION ( 'NONE',  ( 0.0000000000000000000, -1.000000000000000000, 0.0000000000000000000 ) ) ;
#143 = SECURITY_CLASSIFICATION_LEVEL ( 'unclassified' ) ;
#144 = CALENDAR_DATE ( 2021, 8, 10 ) ;
#145 = CIRCLE ( 'NONE', #169, 1.249999999999996225 ) ;
#146 = CARTESIAN_POINT ( 'NONE',  ( 1.501336975702547217E-13, -5.265981236333618470E-15, 43.00000000000000000 ) ) ;
#147 = ADVANCED_FACE ( 'NONE', ( #17, #186 ), #130, .T. ) ;
#148 = ORIENTED_EDGE ( 'NONE', *, *, #68, .F. ) ;
#149 = EDGE_LOOP ( 'NONE', ( #84 ) ) ;
#150 = DIRECTION ( 'NONE',  ( 0.0000000000000000000, 1.000000000000000000, 0.0000000000000000000 ) ) ;
#151 = MECHANICAL_CONTEXT ( 'NONE', #12, 'mechanical' ) ;
#152 = CARTESIAN_POINT ( 'NONE',  ( 4.189777606611760026E-14, 1.224999999999998757, 12.00000000000000000 ) ) ;
#153 = PRODUCT_DEFINITION_FORMATION_WITH_SPECIFIED_SOURCE ( 'ANY', '', #215, .NOT_KNOWN. ) ;
#154 = VERTEX_POINT ( 'NONE', #67 ) ;
#155 = PERSON_AND_ORGANIZATION_ROLE ( 'classification_officer' ) ;
#156 = PERSON_AND_ORGANIZATION ( #160, #51 ) ;
#157 = DATE_TIME_ROLE ( 'classification_date' ) ;
#158 = AXIS2_PLACEMENT_3D ( 'NONE', #164, #7, #86 ) ;
#159 = AXIS2_PLACEMENT_3D ( 'NONE', #204, #202, #91 ) ;
#160 = PERSON ( 'UNSPECIFIED', 'UNSPECIFIED', 'UNSPECIFIED', ('UNSPECIFIED'), ('UNSPECIFIED'), ('UNSPECIFIED') ) ;
#161 = CARTESIAN_POINT ( 'NONE',  ( 0.0000000000000000000, 0.0000000000000000000, 0.0000000000000000000 ) ) ;
#162 = DIRECTION ( 'NONE',  ( -3.491481338843133355E-15, 1.224646799147353207E-16, -1.000000000000000000 ) ) ;
#163 = EDGE_LOOP ( 'NONE', ( #165 ) ) ;
#164 = CARTESIAN_POINT ( 'NONE',  ( 2.569919707261089738E-15, -9.014064914366127916E-17, 0.7360542583087688051 ) ) ;
#165 = ORIENTED_EDGE ( 'NONE', *, *, #14, .T. ) ;
#166 = DIRECTION ( 'NONE',  ( 1.000000000000000000, 0.0000000000000000000, 0.0000000000000000000 ) ) ;
#167 = ADVANCED_FACE ( 'NONE', ( #32 ), #35, .F. ) ;
#168 = APPLICATION_PROTOCOL_DEFINITION ( 'international standard', 'config_control_design', 1994, #12 ) ;
#169 = AXIS2_PLACEMENT_3D ( 'NONE', #182, #162, #4 ) ;
#170 = DIRECTION ( 'NONE',  ( -3.491481338843133355E-15, 1.224646799147353207E-16, -1.000000000000000000 ) ) ;
#171 = LOCAL_TIME ( 7, 15, 58.00000000000000000, #95 ) ;
#172 = COORDINATED_UNIVERSAL_TIME_OFFSET ( 1, 0, .AHEAD. ) ;
#173 = APPROVAL_ROLE ( '' ) ;
#174 = CALENDAR_DATE ( 2021, 8, 10 ) ;
#175 = UNCERTAINTY_MEASURE_WITH_UNIT (LENGTH_MEASURE( 1.000000000000000082E-05 ), #109, 'distance_accuracy_value', 'NONE');
#176 = COORDINATED_UNIVERSAL_TIME_OFFSET ( 1, 0, .AHEAD. ) ;
#177 = CC_DESIGN_PERSON_AND_ORGANIZATION_ASSIGNMENT ( #156, #193, ( #85 ) ) ;
#178 = CYLINDRICAL_SURFACE ( 'NONE', #92, 1.249999999999998446 ) ;
#179 = LOCAL_TIME ( 7, 15, 58.00000000000000000, #172 ) ;
#180 = DIRECTION ( 'NONE',  ( -3.491481338843133355E-15, 1.224646799147353207E-16, -1.000000000000000000 ) ) ;
#181 = DIRECTION ( 'NONE',  ( 0.0000000000000000000, 1.000000000000000000, 0.0000000000000000000 ) ) ;
#182 = CARTESIAN_POINT ( 'NONE',  ( 4.204896164293144393E-14, -1.474879035170447393E-15, 12.04330127018921459 ) ) ;
#183 = APPROVAL_PERSON_ORGANIZATION ( #77, #26, #173 ) ;
#184 = DESIGN_CONTEXT ( 'detailed design', #203, 'design' ) ;
#185 = FACE_OUTER_BOUND ( 'NONE', #64, .T. ) ;
#186 = FACE_BOUND ( 'NONE', #163, .T. ) ;
#187 = CC_DESIGN_SECURITY_CLASSIFICATION ( #83, ( #153 ) ) ;
#188 = VERTEX_POINT ( 'NONE', #107 ) ;
#189 = DIRECTION ( 'NONE',  ( 3.491481338843133355E-15, -1.224646799147353207E-16, 1.000000000000000000 ) ) ;
#190 = CARTESIAN_POINT ( 'NONE',  ( 1.490862531686017501E-13, 1.249999999999995559, 42.69999999999998863 ) ) ;
#191 = APPROVAL_ROLE ( '' ) ;
#192 = APPROVAL ( #141, 'UNSPECIFIED' ) ;
#193 = PERSON_AND_ORGANIZATION_ROLE ( 'creator' ) ;
#194 = PERSON_AND_ORGANIZATION ( #160, #51 ) ;
#195 = MANIFOLD_SOLID_BREP ( 'Corps-Déplacer/Copier1[1]', #30 ) ;
#196 = PRODUCT_DEFINITION_SHAPE ( 'NONE', 'NONE',  #85 ) ;
#197 = PLANE ( 'NONE',  #15 ) ;
#198 = AXIS2_PLACEMENT_3D ( 'NONE', #139, #170, #150 ) ;
#199 = DIRECTION ( 'NONE',  ( -3.491481338843133355E-15, 1.224646799147353207E-16, -1.000000000000000000 ) ) ;
#200 = CARTESIAN_POINT ( 'NONE',  ( 0.0000000000000000000, 0.0000000000000000000, 0.0000000000000000000 ) ) ;
#201 = ORIENTED_EDGE ( 'NONE', *, *, #68, .T. ) ;
#202 = DIRECTION ( 'NONE',  ( -3.491481338843133355E-15, 1.224646799147353207E-16, -1.000000000000000000 ) ) ;
#203 = APPLICATION_CONTEXT ( 'configuration controlled 3d designs of mechanical parts and assemblies' ) ;
#204 = CARTESIAN_POINT ( 'NONE',  ( 1.501336975702547217E-13, 7.123858967643751109E-33, 43.00000000000000000 ) ) ;
#205 = DIRECTION ( 'NONE',  ( 0.0000000000000000000, 1.000000000000000000, 0.0000000000000000000 ) ) ;
#206 = CARTESIAN_POINT ( 'NONE',  ( 4.189777606611760026E-14, -1.469576158976823947E-15, 12.00000000000000000 ) ) ;
#207 = APPROVAL_PERSON_ORGANIZATION ( #70, #192, #191 ) ;
#208 = DATE_AND_TIME ( #19, #61 ) ;
#209 = APPROVAL_STATUS ( 'not_yet_approved' ) ;
#210 = CIRCLE ( 'NONE', #21, 0.9500000000000008438 ) ;
#211 = CYLINDRICAL_SURFACE ( 'NONE', #121, 1.224999999999999423 ) ;
#212 = ORIENTED_EDGE ( 'NONE', *, *, #140, .F. ) ;
#213 = CC_DESIGN_PERSON_AND_ORGANIZATION_ASSIGNMENT ( #94, #155, ( #83 ) ) ;
#214 = EDGE_LOOP ( 'NONE', ( #148 ) ) ;
#215 = PRODUCT ( '55443', '55443', '', ( #151 ) ) ;
#216 = FACE_BOUND ( 'NONE', #9, .T. ) ;
#217 = EDGE_LOOP ( 'NONE', ( #80 ) ) ;
#218 = PLANE ( 'NONE',  #159 ) ;
#219 = APPLICATION_PROTOCOL_DEFINITION ( 'international standard', 'config_control_design', 1994, #203 ) ;
#220 =( NAMED_UNIT ( * ) PLANE_ANGLE_UNIT ( ) SI_UNIT ( $, .RADIAN. ) );
#221 = VERTEX_POINT ( 'NONE', #152 ) ;
#222 = EDGE_CURVE ( 'NONE', #108, #108, #82, .T. ) ;
#223 = PERSON_AND_ORGANIZATION ( #160, #51 ) ;
ENDSEC;
END-ISO-10303-21;
