ISO-10303-21;
HEADER;
FILE_DESCRIPTION (( 'STEP AP203' ),
    '1' );
FILE_NAME ('55442.step',
    '2021-10-08T05:15:57',
    ( '' ),
    ( '' ),
    'SwSTEP 2.0',
    'SolidWorks 2019',
    '' );
FILE_SCHEMA (( 'CONFIG_CONTROL_DESIGN' ));
ENDSEC;

DATA;
#1 = DIRECTION ( 'NONE',  ( 0.0000000000000000000, 1.000000000000000000, 0.0000000000000000000 ) ) ;
#2 = DIRECTION ( 'NONE',  ( -3.491481338843133355E-15, 1.224646799147353207E-16, -1.000000000000000000 ) ) ;
#3 = CALENDAR_DATE ( 2021, 8, 10 ) ;
#4 = LOCAL_TIME ( 7, 15, 57.00000000000000000, #128 ) ;
#5 = ORIENTED_EDGE ( 'NONE', *, *, #188, .T. ) ;
#6 = CALENDAR_DATE ( 2021, 8, 10 ) ;
#7 = ADVANCED_FACE ( 'NONE', ( #40 ), #111, .F. ) ;
#8 = APPLICATION_PROTOCOL_DEFINITION ( 'international standard', 'config_control_design', 1994, #48 ) ;
#9 = PLANE ( 'NONE',  #61 ) ;
#10 = PRODUCT ( '55442', '55442', '', ( #204 ) ) ;
#11 = CONICAL_SURFACE ( 'NONE', #53, 0.9500000000000008438, 0.7853981633974336241 ) ;
#12 = CC_DESIGN_PERSON_AND_ORGANIZATION_ASSIGNMENT ( #105, #126, ( #205 ) ) ;
#13 = CC_DESIGN_PERSON_AND_ORGANIZATION_ASSIGNMENT ( #164, #86, ( #142 ) ) ;
#14 = DIRECTION ( 'NONE',  ( -4.275831445896958607E-31, -1.000000000000000000, -1.224646799147353207E-16 ) ) ;
#15 = DIRECTION ( 'NONE',  ( -3.491481338843133355E-15, 1.224646799147353207E-16, -1.000000000000000000 ) ) ;
#16 = DIRECTION ( 'NONE',  ( -3.491481338843133355E-15, 1.224646799147353207E-16, -1.000000000000000000 ) ) ;
#17 = DIRECTION ( 'NONE',  ( 0.0000000000000000000, 1.000000000000000000, 0.0000000000000000000 ) ) ;
#18 =( NAMED_UNIT ( * ) SI_UNIT ( $, .STERADIAN. ) SOLID_ANGLE_UNIT ( ) );
#19 = AXIS2_PLACEMENT_3D ( 'NONE', #143, #181, #219 ) ;
#20 = DATE_AND_TIME ( #180, #26 ) ;
#21 = PERSON_AND_ORGANIZATION ( #130, #138 ) ;
#22 = SHAPE_DEFINITION_REPRESENTATION ( #154, #92 ) ;
#23 = CC_DESIGN_APPROVAL ( #153, ( #142 ) ) ;
#24 = ORIENTED_EDGE ( 'NONE', *, *, #123, .T. ) ;
#25 = EDGE_LOOP ( 'NONE', ( #5 ) ) ;
#26 = LOCAL_TIME ( 7, 15, 57.00000000000000000, #33 ) ;
#27 = AXIS2_PLACEMENT_3D ( 'NONE', #213, #156, #155 ) ;
#28 = ORIENTED_EDGE ( 'NONE', *, *, #78, .F. ) ;
#29 = DIRECTION ( 'NONE',  ( 0.0000000000000000000, 1.000000000000000000, 0.0000000000000000000 ) ) ;
#30 = CARTESIAN_POINT ( 'NONE',  ( 4.295607510381470784E-14, 1.249999999999994893, 12.30310889132455188 ) ) ;
#31 = CLOSED_SHELL ( 'NONE', ( #220, #83, #51, #197, #7 ) ) ;
#32 =( LENGTH_UNIT ( ) NAMED_UNIT ( * ) SI_UNIT ( .MILLI., .METRE. ) );
#33 = COORDINATED_UNIVERSAL_TIME_OFFSET ( 1, 0, .AHEAD. ) ;
#34 = PERSON_AND_ORGANIZATION ( #130, #138 ) ;
#35 = APPLICATION_CONTEXT ( 'configuration controlled 3d designs of mechanical parts and assemblies' ) ;
#36 = DATE_AND_TIME ( #106, #4 ) ;
#37 = EDGE_LOOP ( 'NONE', ( #166 ) ) ;
#38 = APPROVAL_STATUS ( 'not_yet_approved' ) ;
#39 = LOCAL_TIME ( 7, 15, 57.00000000000000000, #88 ) ;
#40 = FACE_OUTER_BOUND ( 'NONE', #94, .T. ) ;
#41 = ORIENTED_EDGE ( 'NONE', *, *, #42, .T. ) ;
#42 = EDGE_CURVE ( 'NONE', #221, #221, #167, .T. ) ;
#43 = AXIS2_PLACEMENT_3D ( 'NONE', #67, #81, #117 ) ;
#44 = ADVANCED_FACE ( 'NONE', ( #131 ), #9, .T. ) ;
#45 = ORIENTED_EDGE ( 'NONE', *, *, #91, .T. ) ;
#46 = DIRECTION ( 'NONE',  ( -3.491481338843133355E-15, 1.224646799147353207E-16, -1.000000000000000000 ) ) ;
#47 = FACE_OUTER_BOUND ( 'NONE', #217, .T. ) ;
#48 = APPLICATION_CONTEXT ( 'configuration controlled 3d designs of mechanical parts and assemblies' ) ;
#49 = CARTESIAN_POINT ( 'NONE',  ( 4.189777606611760026E-14, 1.074999999999997735, 12.00000000000000000 ) ) ;
#50 = DIRECTION ( 'NONE',  ( 4.275831445896958607E-31, 1.000000000000000000, 1.224646799147353207E-16 ) ) ;
#51 = ADVANCED_FACE ( 'NONE', ( #152, #206 ), #114, .T. ) ;
#52 = CALENDAR_DATE ( 2021, 8, 10 ) ;
#53 = AXIS2_PLACEMENT_3D ( 'NONE', #100, #2, #140 ) ;
#54 = DATE_AND_TIME ( #3, #39 ) ;
#55 = ORIENTED_EDGE ( 'NONE', *, *, #91, .F. ) ;
#56 = APPLICATION_PROTOCOL_DEFINITION ( 'international standard', 'config_control_design', 1994, #35 ) ;
#57 = EDGE_LOOP ( 'NONE', ( #45 ) ) ;
#58 = ORIENTED_EDGE ( 'NONE', *, *, #42, .F. ) ;
#59 = CC_DESIGN_DATE_AND_TIME_ASSIGNMENT ( #36, #199, ( #95 ) ) ;
#60 = LOCAL_TIME ( 7, 15, 57.00000000000000000, #163 ) ;
#61 = AXIS2_PLACEMENT_3D ( 'NONE', #75, #93, #76 ) ;
#62 = DIRECTION ( 'NONE',  ( 4.275831445896958607E-31, 1.000000000000000000, 1.224646799147353207E-16 ) ) ;
#63 = ORIENTED_EDGE ( 'NONE', *, *, #170, .T. ) ;
#64 = DIRECTION ( 'NONE',  ( -3.583125477929746611E-31, -1.000000000000000000, -1.008560160451633577E-16 ) ) ;
#65 = FACE_BOUND ( 'NONE', #37, .T. ) ;
#66 = DIRECTION ( 'NONE',  ( 0.0000000000000000000, 1.000000000000000000, 0.0000000000000000000 ) ) ;
#67 = CARTESIAN_POINT ( 'NONE',  ( 4.295607510381470784E-14, -1.506696292332195565E-15, 12.30310889132455188 ) ) ;
#68 =( GEOMETRIC_REPRESENTATION_CONTEXT ( 3 ) GLOBAL_UNCERTAINTY_ASSIGNED_CONTEXT ( ( #97 ) ) GLOBAL_UNIT_ASSIGNED_CONTEXT ( ( #32, #196, #18 ) ) REPRESENTATION_CONTEXT ( 'NONE', 'WORKASPACE' ) );
#69 = DIRECTION ( 'NONE',  ( 4.275831445896959482E-31, 1.000000000000000000, 1.224646799147353207E-16 ) ) ;
#70 = PERSON_AND_ORGANIZATION ( #130, #138 ) ;
#71 = DATE_AND_TIME ( #52, #60 ) ;
#72 = PERSON_AND_ORGANIZATION ( #130, #138 ) ;
#73 = APPROVAL_DATE_TIME ( #54, #98 ) ;
#74 = SECURITY_CLASSIFICATION_LEVEL ( 'unclassified' ) ;
#75 = CARTESIAN_POINT ( 'NONE',  ( 4.189777606611760026E-14, 8.061208831807458641E-33, 12.00000000000000000 ) ) ;
#76 = DIRECTION ( 'NONE',  ( -4.275831445896958607E-31, -1.000000000000000000, -1.224646799147353207E-16 ) ) ;
#77 = PLANE ( 'NONE',  #216 ) ;
#78 = EDGE_CURVE ( 'NONE', #82, #82, #200, .T. ) ;
#79 = DIRECTION ( 'NONE',  ( -3.491481338843133355E-15, 1.224646799147353207E-16, -1.000000000000000000 ) ) ;
#80 = AXIS2_PLACEMENT_3D ( 'NONE', #211, #15, #50 ) ;
#81 = DIRECTION ( 'NONE',  ( 3.491481338843133355E-15, -1.224646799147353207E-16, 1.000000000000000000 ) ) ;
#82 = VERTEX_POINT ( 'NONE', #49 ) ;
#83 = ADVANCED_FACE ( 'NONE', ( #65, #174 ), #179, .T. ) ;
#84 = DIRECTION ( 'NONE',  ( 3.491481338843133355E-15, -1.224646799147353207E-16, 1.000000000000000000 ) ) ;
#85 = CC_DESIGN_APPROVAL ( #98, ( #205 ) ) ;
#86 = PERSON_AND_ORGANIZATION_ROLE ( 'creator' ) ;
#87 = APPROVAL_STATUS ( 'not_yet_approved' ) ;
#88 = COORDINATED_UNIVERSAL_TIME_OFFSET ( 1, 0, .AHEAD. ) ;
#89 = DIRECTION ( 'NONE',  ( -3.491481338843133355E-15, 1.224646799147353207E-16, -1.000000000000000000 ) ) ;
#90 = DIRECTION ( 'NONE',  ( 0.0000000000000000000, 1.000000000000000000, 0.0000000000000000000 ) ) ;
#91 = EDGE_CURVE ( 'NONE', #99, #99, #208, .T. ) ;
#92 = ADVANCED_BREP_SHAPE_REPRESENTATION ( '55442', ( #121, #113, #19 ), #68 ) ;
#93 = DIRECTION ( 'NONE',  ( 3.491481338843133355E-15, -1.224646799147353207E-16, 1.000000000000000000 ) ) ;
#94 = EDGE_LOOP ( 'NONE', ( #172 ) ) ;
#95 = SECURITY_CLASSIFICATION ( '', '', #74 ) ;
#96 = AXIS2_PLACEMENT_3D ( 'NONE', #120, #116, #66 ) ;
#97 = UNCERTAINTY_MEASURE_WITH_UNIT (LENGTH_MEASURE( 1.000000000000000082E-05 ), #32, 'distance_accuracy_value', 'NONE');
#98 = APPROVAL ( #108, 'UNSPECIFIED' ) ;
#99 = VERTEX_POINT ( 'NONE', #223 ) ;
#100 = CARTESIAN_POINT ( 'NONE',  ( 1.501336975702547217E-13, -5.265981236333618470E-15, 43.00000000000000000 ) ) ;
#101 = DATE_TIME_ROLE ( 'creation_date' ) ;
#102 = APPROVAL_PERSON_ORGANIZATION ( #21, #98, #215 ) ;
#103 = AXIS2_PLACEMENT_3D ( 'NONE', #134, #122, #64 ) ;
#104 = APPROVAL ( #87, 'UNSPECIFIED' ) ;
#105 = PERSON_AND_ORGANIZATION ( #130, #138 ) ;
#106 = CALENDAR_DATE ( 2021, 8, 10 ) ;
#107 = EDGE_LOOP ( 'NONE', ( #63 ) ) ;
#108 = APPROVAL_STATUS ( 'not_yet_approved' ) ;
#109 = AXIS2_PLACEMENT_3D ( 'NONE', #112, #186, #90 ) ;
#110 = CC_DESIGN_PERSON_AND_ORGANIZATION_ASSIGNMENT ( #34, #214, ( #95 ) ) ;
#111 = PLANE ( 'NONE',  #184 ) ;
#112 = CARTESIAN_POINT ( 'NONE',  ( 4.295607510381470784E-14, -1.506696292332195565E-15, 12.30310889132455188 ) ) ;
#113 = MANIFOLD_SOLID_BREP ( 'Corps-Déplacer/Copier1[2]', #151 ) ;
#114 = CYLINDRICAL_SURFACE ( 'NONE', #124, 1.249999999999998446 ) ;
#115 = EDGE_LOOP ( 'NONE', ( #41 ) ) ;
#116 = DIRECTION ( 'NONE',  ( -3.491481338843133355E-15, 1.224646799147353207E-16, -1.000000000000000000 ) ) ;
#117 = DIRECTION ( 'NONE',  ( 0.0000000000000000000, -1.000000000000000000, 0.0000000000000000000 ) ) ;
#118 = CARTESIAN_POINT ( 'NONE',  ( 1.490862531686017501E-13, 1.249999999999995559, 42.69999999999998863 ) ) ;
#119 = AXIS2_PLACEMENT_3D ( 'NONE', #158, #176, #17 ) ;
#120 = CARTESIAN_POINT ( 'NONE',  ( 4.189777606611760026E-14, -1.469576158976823947E-15, 12.00000000000000000 ) ) ;
#121 = MANIFOLD_SOLID_BREP ( 'Corps-Déplacer/Copier1[1]', #31 ) ;
#122 = DIRECTION ( 'NONE',  ( 3.491481338843133355E-15, -1.224646799147353207E-16, 1.000000000000000000 ) ) ;
#123 = EDGE_CURVE ( 'NONE', #133, #133, #157, .T. ) ;
#124 = AXIS2_PLACEMENT_3D ( 'NONE', #189, #79, #69 ) ;
#125 = COORDINATED_UNIVERSAL_TIME_OFFSET ( 1, 0, .AHEAD. ) ;
#126 = PERSON_AND_ORGANIZATION_ROLE ( 'design_supplier' ) ;
#127 = ORIENTED_EDGE ( 'NONE', *, *, #188, .F. ) ;
#128 = COORDINATED_UNIVERSAL_TIME_OFFSET ( 1, 0, .AHEAD. ) ;
#129 = CIRCLE ( 'NONE', #161, 1.250000000000000666 ) ;
#130 = PERSON ( 'UNSPECIFIED', 'UNSPECIFIED', 'UNSPECIFIED', ('UNSPECIFIED'), ('UNSPECIFIED'), ('UNSPECIFIED') ) ;
#131 = FACE_OUTER_BOUND ( 'NONE', #147, .T. ) ;
#132 = CC_DESIGN_APPROVAL ( #104, ( #95 ) ) ;
#133 = VERTEX_POINT ( 'NONE', #135 ) ;
#134 = CARTESIAN_POINT ( 'NONE',  ( 2.255235661474016117E-15, -7.910301863627414350E-17, 0.6459251654546335208 ) ) ;
#135 = CARTESIAN_POINT ( 'NONE',  ( 1.501336975702547217E-13, 0.9499999999999955147, 43.00000000000000000 ) ) ;
#136 = CC_DESIGN_PERSON_AND_ORGANIZATION_ASSIGNMENT ( #72, #145, ( #10 ) ) ;
#137 = FACE_OUTER_BOUND ( 'NONE', #207, .T. ) ;
#138 = ORGANIZATION ( 'UNSPECIFIED', 'UNSPECIFIED', '' ) ;
#139 = CONICAL_SURFACE ( 'NONE', #103, 1.074999999999998401, 1.029744258676649649 ) ;
#140 = DIRECTION ( 'NONE',  ( 0.0000000000000000000, 1.000000000000000000, 0.0000000000000000000 ) ) ;
#141 = APPROVAL_DATE_TIME ( #178, #153 ) ;
#142 = PRODUCT_DEFINITION ( 'UNKNOWN', '', #205, #185 ) ;
#143 = CARTESIAN_POINT ( 'NONE',  ( 0.0000000000000000000, 0.0000000000000000000, 0.0000000000000000000 ) ) ;
#144 = AXIS2_PLACEMENT_3D ( 'NONE', #194, #16, #29 ) ;
#145 = PERSON_AND_ORGANIZATION_ROLE ( 'design_owner' ) ;
#146 = PERSON_AND_ORGANIZATION ( #130, #138 ) ;
#147 = EDGE_LOOP ( 'NONE', ( #28 ) ) ;
#148 = EDGE_LOOP ( 'NONE', ( #58 ) ) ;
#149 = LOCAL_TIME ( 7, 15, 57.00000000000000000, #125 ) ;
#150 = CC_DESIGN_PERSON_AND_ORGANIZATION_ASSIGNMENT ( #70, #165, ( #205 ) ) ;
#151 = CLOSED_SHELL ( 'NONE', ( #162, #218, #44 ) ) ;
#152 = FACE_OUTER_BOUND ( 'NONE', #148, .T. ) ;
#153 = APPROVAL ( #38, 'UNSPECIFIED' ) ;
#154 = PRODUCT_DEFINITION_SHAPE ( 'NONE', 'NONE',  #142 ) ;
#155 = DIRECTION ( 'NONE',  ( 3.583125477929746611E-31, 1.000000000000000000, 1.008560160451633577E-16 ) ) ;
#156 = DIRECTION ( 'NONE',  ( -3.491481338843133355E-15, 1.224646799147353207E-16, -1.000000000000000000 ) ) ;
#157 = CIRCLE ( 'NONE', #119, 0.9500000000000008438 ) ;
#158 = CARTESIAN_POINT ( 'NONE',  ( 1.501336975702547217E-13, -5.265981236333618470E-15, 43.00000000000000000 ) ) ;
#159 = PRODUCT_RELATED_PRODUCT_CATEGORY ( 'detail', '', ( #10 ) ) ;
#160 = FACE_BOUND ( 'NONE', #187, .T. ) ;
#161 = AXIS2_PLACEMENT_3D ( 'NONE', #222, #46, #1 ) ;
#162 = ADVANCED_FACE ( 'NONE', ( #177 ), #139, .T. ) ;
#163 = COORDINATED_UNIVERSAL_TIME_OFFSET ( 1, 0, .AHEAD. ) ;
#164 = PERSON_AND_ORGANIZATION ( #130, #138 ) ;
#165 = PERSON_AND_ORGANIZATION_ROLE ( 'creator' ) ;
#166 = ORIENTED_EDGE ( 'NONE', *, *, #170, .F. ) ;
#167 = CIRCLE ( 'NONE', #109, 1.249999999999996447 ) ;
#168 = APPROVAL_ROLE ( '' ) ;
#169 = APPROVAL_PERSON_ORGANIZATION ( #201, #153, #168 ) ;
#170 = EDGE_CURVE ( 'NONE', #212, #212, #190, .T. ) ;
#171 = APPROVAL_PERSON_ORGANIZATION ( #146, #104, #182 ) ;
#172 = ORIENTED_EDGE ( 'NONE', *, *, #123, .F. ) ;
#173 = CARTESIAN_POINT ( 'NONE',  ( 4.189777606611760026E-14, 8.061208831807458641E-33, 12.00000000000000000 ) ) ;
#174 = FACE_OUTER_BOUND ( 'NONE', #115, .T. ) ;
#175 = CYLINDRICAL_SURFACE ( 'NONE', #80, 1.074999999999998845 ) ;
#176 = DIRECTION ( 'NONE',  ( -3.491481338843133355E-15, 1.224646799147353207E-16, -1.000000000000000000 ) ) ;
#177 = FACE_OUTER_BOUND ( 'NONE', #57, .T. ) ;
#178 = DATE_AND_TIME ( #6, #149 ) ;
#179 = CONICAL_SURFACE ( 'NONE', #43, 1.249999999999996447, 0.5235987755982932645 ) ;
#180 = CALENDAR_DATE ( 2021, 8, 10 ) ;
#181 = DIRECTION ( 'NONE',  ( 0.0000000000000000000, 0.0000000000000000000, 1.000000000000000000 ) ) ;
#182 = APPROVAL_ROLE ( '' ) ;
#183 = CARTESIAN_POINT ( 'NONE',  ( 1.501336975702547217E-13, 7.123858967643751109E-33, 43.00000000000000000 ) ) ;
#184 = AXIS2_PLACEMENT_3D ( 'NONE', #183, #89, #62 ) ;
#185 = DESIGN_CONTEXT ( 'detailed design', #48, 'design' ) ;
#186 = DIRECTION ( 'NONE',  ( -3.491481338843133355E-15, 1.224646799147353207E-16, -1.000000000000000000 ) ) ;
#187 = EDGE_LOOP ( 'NONE', ( #24 ) ) ;
#188 = EDGE_CURVE ( 'NONE', #192, #192, #129, .T. ) ;
#189 = CARTESIAN_POINT ( 'NONE',  ( 0.0000000000000000000, 0.0000000000000000000, 0.0000000000000000000 ) ) ;
#190 = CIRCLE ( 'NONE', #96, 1.074999999999999289 ) ;
#191 = ORIENTED_EDGE ( 'NONE', *, *, #78, .T. ) ;
#192 = VERTEX_POINT ( 'NONE', #118 ) ;
#193 = CC_DESIGN_DATE_AND_TIME_ASSIGNMENT ( #71, #101, ( #142 ) ) ;
#194 = CARTESIAN_POINT ( 'NONE',  ( 4.189777606611760026E-14, -1.469576158976823947E-15, 12.00000000000000000 ) ) ;
#195 = CC_DESIGN_SECURITY_CLASSIFICATION ( #95, ( #205 ) ) ;
#196 =( NAMED_UNIT ( * ) PLANE_ANGLE_UNIT ( ) SI_UNIT ( $, .RADIAN. ) );
#197 = ADVANCED_FACE ( 'NONE', ( #210, #160 ), #11, .T. ) ;
#198 = FACE_OUTER_BOUND ( 'NONE', #107, .T. ) ;
#199 = DATE_TIME_ROLE ( 'classification_date' ) ;
#200 = CIRCLE ( 'NONE', #144, 1.074999999999999289 ) ;
#201 = PERSON_AND_ORGANIZATION ( #130, #138 ) ;
#202 = APPROVAL_DATE_TIME ( #20, #104 ) ;
#203 = EDGE_LOOP ( 'NONE', ( #127 ) ) ;
#204 = MECHANICAL_CONTEXT ( 'NONE', #35, 'mechanical' ) ;
#205 = PRODUCT_DEFINITION_FORMATION_WITH_SPECIFIED_SOURCE ( 'ANY', '', #10, .NOT_KNOWN. ) ;
#206 = FACE_OUTER_BOUND ( 'NONE', #25, .T. ) ;
#207 = EDGE_LOOP ( 'NONE', ( #55 ) ) ;
#208 = CIRCLE ( 'NONE', #27, 1.074999999999998401 ) ;
#209 = CARTESIAN_POINT ( 'NONE',  ( 4.189777606611760026E-14, 1.074999999999997735, 12.00000000000000000 ) ) ;
#210 = FACE_OUTER_BOUND ( 'NONE', #203, .T. ) ;
#211 = CARTESIAN_POINT ( 'NONE',  ( 0.0000000000000000000, 0.0000000000000000000, 0.0000000000000000000 ) ) ;
#212 = VERTEX_POINT ( 'NONE', #209 ) ;
#213 = CARTESIAN_POINT ( 'NONE',  ( 2.255235661474016117E-15, -7.910301863627414350E-17, 0.6459251654546335208 ) ) ;
#214 = PERSON_AND_ORGANIZATION_ROLE ( 'classification_officer' ) ;
#215 = APPROVAL_ROLE ( '' ) ;
#216 = AXIS2_PLACEMENT_3D ( 'NONE', #173, #84, #14 ) ;
#217 = EDGE_LOOP ( 'NONE', ( #191 ) ) ;
#218 = ADVANCED_FACE ( 'NONE', ( #137, #47 ), #175, .T. ) ;
#219 = DIRECTION ( 'NONE',  ( 1.000000000000000000, 0.0000000000000000000, 0.0000000000000000000 ) ) ;
#220 = ADVANCED_FACE ( 'NONE', ( #198 ), #77, .F. ) ;
#221 = VERTEX_POINT ( 'NONE', #30 ) ;
#222 = CARTESIAN_POINT ( 'NONE',  ( 1.490862531686017501E-13, -5.229241832359196822E-15, 42.69999999999998863 ) ) ;
#223 = CARTESIAN_POINT ( 'NONE',  ( 2.255235661474016511E-15, 1.074999999999998401, 0.6459251654546336319 ) ) ;
ENDSEC;
END-ISO-10303-21;
