ISO-10303-21;
HEADER;
FILE_DESCRIPTION (( 'STEP AP203' ),
    '1' );
FILE_NAME ('55441.step',
    '2021-10-08T05:15:57',
    ( '' ),
    ( '' ),
    'SwSTEP 2.0',
    'SolidWorks 2019',
    '' );
FILE_SCHEMA (( 'CONFIG_CONTROL_DESIGN' ));
ENDSEC;

DATA;
#1 = SECURITY_CLASSIFICATION ( '', '', #5 ) ;
#2 = APPROVAL_DATE_TIME ( #75, #77 ) ;
#3 = EDGE_LOOP ( 'NONE', ( #209 ) ) ;
#4 = APPROVAL_STATUS ( 'not_yet_approved' ) ;
#5 = SECURITY_CLASSIFICATION_LEVEL ( 'unclassified' ) ;
#6 = EDGE_LOOP ( 'NONE', ( #80 ) ) ;
#7 = PRODUCT_RELATED_PRODUCT_CATEGORY ( 'detail', '', ( #59 ) ) ;
#8 = CARTESIAN_POINT ( 'NONE',  ( 4.304678644990302666E-14, -1.509878018048370106E-15, 12.32908965343808383 ) ) ;
#9 =( GEOMETRIC_REPRESENTATION_CONTEXT ( 3 ) GLOBAL_UNCERTAINTY_ASSIGNED_CONTEXT ( ( #129 ) ) GLOBAL_UNIT_ASSIGNED_CONTEXT ( ( #175, #55, #37 ) ) REPRESENTATION_CONTEXT ( 'NONE', 'WORKASPACE' ) );
#10 = DIRECTION ( 'NONE',  ( 3.491481338843133355E-15, -1.224646799147353207E-16, 1.000000000000000000 ) ) ;
#11 = CARTESIAN_POINT ( 'NONE',  ( 1.501336975702547217E-13, -5.265981236333618470E-15, 43.00000000000000000 ) ) ;
#12 = CC_DESIGN_DATE_AND_TIME_ASSIGNMENT ( #20, #73, ( #197 ) ) ;
#13 = CARTESIAN_POINT ( 'NONE',  ( 4.189777606611761289E-14, -1.469576158976824342E-15, 12.00000000000000355 ) ) ;
#14 = ADVANCED_FACE ( 'NONE', ( #49 ), #124, .T. ) ;
#15 = CARTESIAN_POINT ( 'NONE',  ( 2.223767256895308873E-15, -7.799925558553542994E-17, 0.6369122561692200923 ) ) ;
#16 = PERSON ( 'UNSPECIFIED', 'UNSPECIFIED', 'UNSPECIFIED', ('UNSPECIFIED'), ('UNSPECIFIED'), ('UNSPECIFIED') ) ;
#17 = APPROVAL_STATUS ( 'not_yet_approved' ) ;
#18 = DESIGN_CONTEXT ( 'detailed design', #203, 'design' ) ;
#19 = PERSON_AND_ORGANIZATION ( #16, #65 ) ;
#20 = DATE_AND_TIME ( #130, #153 ) ;
#21 = APPLICATION_PROTOCOL_DEFINITION ( 'international standard', 'config_control_design', 1994, #127 ) ;
#22 = ADVANCED_FACE ( 'NONE', ( #202, #138 ), #168, .T. ) ;
#23 = EDGE_LOOP ( 'NONE', ( #148 ) ) ;
#24 = PERSON_AND_ORGANIZATION_ROLE ( 'classification_officer' ) ;
#25 = CIRCLE ( 'NONE', #200, 1.249999999999996447 ) ;
#26 = APPROVAL_ROLE ( '' ) ;
#27 = ORIENTED_EDGE ( 'NONE', *, *, #165, .F. ) ;
#28 = AXIS2_PLACEMENT_3D ( 'NONE', #201, #218, #50 ) ;
#29 = DIRECTION ( 'NONE',  ( 3.633830083749506947E-31, 1.000000000000000000, 1.022832238193873610E-16 ) ) ;
#30 = CARTESIAN_POINT ( 'NONE',  ( 0.0000000000000000000, 0.0000000000000000000, 0.0000000000000000000 ) ) ;
#31 = FACE_OUTER_BOUND ( 'NONE', #67, .T. ) ;
#32 = DIRECTION ( 'NONE',  ( -3.491481338843133355E-15, 1.224646799147353207E-16, -1.000000000000000000 ) ) ;
#33 = DIRECTION ( 'NONE',  ( 0.0000000000000000000, 1.000000000000000000, 0.0000000000000000000 ) ) ;
#34 = CARTESIAN_POINT ( 'NONE',  ( 4.189777606611761289E-14, 1.060000000000000275, 12.00000000000000355 ) ) ;
#35 = AXIS2_PLACEMENT_3D ( 'NONE', #30, #71, #186 ) ;
#36 = CARTESIAN_POINT ( 'NONE',  ( 1.501336975702547217E-13, 0.9499999999999955147, 43.00000000000000000 ) ) ;
#37 =( NAMED_UNIT ( * ) SI_UNIT ( $, .STERADIAN. ) SOLID_ANGLE_UNIT ( ) );
#38 = VERTEX_POINT ( 'NONE', #110 ) ;
#39 = ADVANCED_FACE ( 'NONE', ( #155, #205 ), #183, .T. ) ;
#40 = AXIS2_PLACEMENT_3D ( 'NONE', #15, #88, #29 ) ;
#41 = CIRCLE ( 'NONE', #94, 1.060000000000001608 ) ;
#42 = MANIFOLD_SOLID_BREP ( 'Corps-Déplacer/Copier1[2]', #221 ) ;
#43 = AXIS2_PLACEMENT_3D ( 'NONE', #142, #100, #166 ) ;
#44 = EDGE_LOOP ( 'NONE', ( #134 ) ) ;
#45 = AXIS2_PLACEMENT_3D ( 'NONE', #11, #122, #204 ) ;
#46 = ORIENTED_EDGE ( 'NONE', *, *, #48, .T. ) ;
#47 = EDGE_LOOP ( 'NONE', ( #169 ) ) ;
#48 = EDGE_CURVE ( 'NONE', #144, #144, #93, .T. ) ;
#49 = FACE_OUTER_BOUND ( 'NONE', #6, .T. ) ;
#50 = DIRECTION ( 'NONE',  ( -3.633830083749506947E-31, -1.000000000000000000, -1.022832238193873610E-16 ) ) ;
#51 = FACE_OUTER_BOUND ( 'NONE', #162, .T. ) ;
#52 = CARTESIAN_POINT ( 'NONE',  ( 0.0000000000000000000, 0.0000000000000000000, 0.0000000000000000000 ) ) ;
#53 = PERSON_AND_ORGANIZATION ( #16, #65 ) ;
#54 = CC_DESIGN_PERSON_AND_ORGANIZATION_ASSIGNMENT ( #53, #78, ( #121 ) ) ;
#55 =( NAMED_UNIT ( * ) PLANE_ANGLE_UNIT ( ) SI_UNIT ( $, .RADIAN. ) );
#56 = VERTEX_POINT ( 'NONE', #220 ) ;
#57 = CC_DESIGN_PERSON_AND_ORGANIZATION_ASSIGNMENT ( #95, #174, ( #59 ) ) ;
#58 = DIRECTION ( 'NONE',  ( 0.0000000000000000000, -1.000000000000000000, 0.0000000000000000000 ) ) ;
#59 = PRODUCT ( '55441', '55441', '', ( #157 ) ) ;
#60 = CC_DESIGN_PERSON_AND_ORGANIZATION_ASSIGNMENT ( #76, #146, ( #121 ) ) ;
#61 = PERSON_AND_ORGANIZATION ( #16, #65 ) ;
#62 = CIRCLE ( 'NONE', #99, 1.250000000000000666 ) ;
#63 = CALENDAR_DATE ( 2021, 8, 10 ) ;
#64 = AXIS2_PLACEMENT_3D ( 'NONE', #52, #188, #102 ) ;
#65 = ORGANIZATION ( 'UNSPECIFIED', 'UNSPECIFIED', '' ) ;
#66 = DIRECTION ( 'NONE',  ( 0.0000000000000000000, 1.000000000000000000, 0.0000000000000000000 ) ) ;
#67 = EDGE_LOOP ( 'NONE', ( #46 ) ) ;
#68 = APPROVAL_PERSON_ORGANIZATION ( #191, #159, #112 ) ;
#69 = LOCAL_TIME ( 7, 15, 57.00000000000000000, #208 ) ;
#70 = DIRECTION ( 'NONE',  ( -3.491481338843133355E-15, 1.224646799147353207E-16, -1.000000000000000000 ) ) ;
#71 = DIRECTION ( 'NONE',  ( -3.491481338843133355E-15, 1.224646799147353207E-16, -1.000000000000000000 ) ) ;
#72 = APPLICATION_PROTOCOL_DEFINITION ( 'international standard', 'config_control_design', 1994, #203 ) ;
#73 = DATE_TIME_ROLE ( 'creation_date' ) ;
#74 = VERTEX_POINT ( 'NONE', #194 ) ;
#75 = DATE_AND_TIME ( #219, #82 ) ;
#76 = PERSON_AND_ORGANIZATION ( #16, #65 ) ;
#77 = APPROVAL ( #160, 'UNSPECIFIED' ) ;
#78 = PERSON_AND_ORGANIZATION_ROLE ( 'design_supplier' ) ;
#79 = ORIENTED_EDGE ( 'NONE', *, *, #173, .T. ) ;
#80 = ORIENTED_EDGE ( 'NONE', *, *, #89, .F. ) ;
#81 = COORDINATED_UNIVERSAL_TIME_OFFSET ( 1, 0, .AHEAD. ) ;
#82 = LOCAL_TIME ( 7, 15, 57.00000000000000000, #223 ) ;
#83 = FACE_OUTER_BOUND ( 'NONE', #116, .T. ) ;
#84 = DIRECTION ( 'NONE',  ( -4.275831445896958607E-31, -1.000000000000000000, -1.224646799147353207E-16 ) ) ;
#85 = ORIENTED_EDGE ( 'NONE', *, *, #107, .T. ) ;
#86 = DIRECTION ( 'NONE',  ( -3.491481338843133355E-15, 1.224646799147353207E-16, -1.000000000000000000 ) ) ;
#87 = APPROVAL_PERSON_ORGANIZATION ( #61, #123, #26 ) ;
#88 = DIRECTION ( 'NONE',  ( -3.491481338843133355E-15, 1.224646799147353207E-16, -1.000000000000000000 ) ) ;
#89 = EDGE_CURVE ( 'NONE', #206, #206, #41, .T. ) ;
#90 = COORDINATED_UNIVERSAL_TIME_OFFSET ( 1, 0, .AHEAD. ) ;
#91 = CC_DESIGN_DATE_AND_TIME_ASSIGNMENT ( #114, #117, ( #1 ) ) ;
#92 = PERSON_AND_ORGANIZATION ( #16, #65 ) ;
#93 = CIRCLE ( 'NONE', #212, 1.060000000000001608 ) ;
#94 = AXIS2_PLACEMENT_3D ( 'NONE', #143, #70, #126 ) ;
#95 = PERSON_AND_ORGANIZATION ( #16, #65 ) ;
#96 = EDGE_LOOP ( 'NONE', ( #198 ) ) ;
#97 = APPROVAL_DATE_TIME ( #211, #123 ) ;
#98 = ORIENTED_EDGE ( 'NONE', *, *, #107, .F. ) ;
#99 = AXIS2_PLACEMENT_3D ( 'NONE', #105, #86, #187 ) ;
#100 = DIRECTION ( 'NONE',  ( -3.491481338843133355E-15, 1.224646799147353207E-16, -1.000000000000000000 ) ) ;
#101 = CC_DESIGN_APPROVAL ( #159, ( #197 ) ) ;
#102 = DIRECTION ( 'NONE',  ( 4.275831445896959482E-31, 1.000000000000000000, 1.224646799147353207E-16 ) ) ;
#103 = FACE_OUTER_BOUND ( 'NONE', #106, .T. ) ;
#104 = CLOSED_SHELL ( 'NONE', ( #181, #217, #22, #39, #149 ) ) ;
#105 = CARTESIAN_POINT ( 'NONE',  ( 1.490862531686017501E-13, -5.229241832359196822E-15, 42.69999999999998863 ) ) ;
#106 = EDGE_LOOP ( 'NONE', ( #79 ) ) ;
#107 = EDGE_CURVE ( 'NONE', #192, #192, #115, .T. ) ;
#108 = APPROVAL_DATE_TIME ( #178, #159 ) ;
#109 = CIRCLE ( 'NONE', #40, 1.059999999999998499 ) ;
#110 = CARTESIAN_POINT ( 'NONE',  ( 2.223767256895309267E-15, 1.059999999999998499, 0.6369122561692202034 ) ) ;
#111 = CARTESIAN_POINT ( 'NONE',  ( 0.0000000000000000000, 0.0000000000000000000, 0.0000000000000000000 ) ) ;
#112 = APPROVAL_ROLE ( '' ) ;
#113 = EDGE_CURVE ( 'NONE', #38, #38, #109, .T. ) ;
#114 = DATE_AND_TIME ( #136, #137 ) ;
#115 = CIRCLE ( 'NONE', #125, 0.9500000000000008438 ) ;
#116 = EDGE_LOOP ( 'NONE', ( #98 ) ) ;
#117 = DATE_TIME_ROLE ( 'classification_date' ) ;
#118 = EDGE_LOOP ( 'NONE', ( #27 ) ) ;
#119 = CC_DESIGN_PERSON_AND_ORGANIZATION_ASSIGNMENT ( #19, #177, ( #197 ) ) ;
#120 = CYLINDRICAL_SURFACE ( 'NONE', #35, 1.060000000000000275 ) ;
#121 = PRODUCT_DEFINITION_FORMATION_WITH_SPECIFIED_SOURCE ( 'ANY', '', #59, .NOT_KNOWN. ) ;
#122 = DIRECTION ( 'NONE',  ( -3.491481338843133355E-15, 1.224646799147353207E-16, -1.000000000000000000 ) ) ;
#123 = APPROVAL ( #4, 'UNSPECIFIED' ) ;
#124 = PLANE ( 'NONE',  #135 ) ;
#125 = AXIS2_PLACEMENT_3D ( 'NONE', #182, #152, #33 ) ;
#126 = DIRECTION ( 'NONE',  ( 0.0000000000000000000, 1.000000000000000000, 0.0000000000000000000 ) ) ;
#127 = APPLICATION_CONTEXT ( 'configuration controlled 3d designs of mechanical parts and assemblies' ) ;
#128 = COORDINATED_UNIVERSAL_TIME_OFFSET ( 1, 0, .AHEAD. ) ;
#129 = UNCERTAINTY_MEASURE_WITH_UNIT (LENGTH_MEASURE( 1.000000000000000082E-05 ), #175, 'distance_accuracy_value', 'NONE');
#130 = CALENDAR_DATE ( 2021, 8, 10 ) ;
#131 = CALENDAR_DATE ( 2021, 8, 10 ) ;
#132 = AXIS2_PLACEMENT_3D ( 'NONE', #154, #158, #58 ) ;
#133 = ADVANCED_FACE ( 'NONE', ( #51 ), #222, .T. ) ;
#134 = ORIENTED_EDGE ( 'NONE', *, *, #89, .T. ) ;
#135 = AXIS2_PLACEMENT_3D ( 'NONE', #216, #215, #170 ) ;
#136 = CALENDAR_DATE ( 2021, 8, 10 ) ;
#137 = LOCAL_TIME ( 7, 15, 57.00000000000000000, #81 ) ;
#138 = FACE_OUTER_BOUND ( 'NONE', #47, .T. ) ;
#139 = DIRECTION ( 'NONE',  ( -3.491481338843133355E-15, 1.224646799147353207E-16, -1.000000000000000000 ) ) ;
#140 = FACE_OUTER_BOUND ( 'NONE', #23, .T. ) ;
#141 = ADVANCED_FACE ( 'NONE', ( #140, #214 ), #120, .T. ) ;
#142 = CARTESIAN_POINT ( 'NONE',  ( 1.501336975702547217E-13, 7.123858967643751109E-33, 43.00000000000000000 ) ) ;
#143 = CARTESIAN_POINT ( 'NONE',  ( 4.189777606611761289E-14, -1.469576158976824342E-15, 12.00000000000000355 ) ) ;
#144 = VERTEX_POINT ( 'NONE', #207 ) ;
#145 = DIRECTION ( 'NONE',  ( 0.0000000000000000000, 0.0000000000000000000, 1.000000000000000000 ) ) ;
#146 = PERSON_AND_ORGANIZATION_ROLE ( 'creator' ) ;
#147 = EDGE_LOOP ( 'NONE', ( #85 ) ) ;
#148 = ORIENTED_EDGE ( 'NONE', *, *, #113, .F. ) ;
#149 = ADVANCED_FACE ( 'NONE', ( #83 ), #150, .F. ) ;
#150 = PLANE ( 'NONE',  #43 ) ;
#151 = FACE_BOUND ( 'NONE', #3, .T. ) ;
#152 = DIRECTION ( 'NONE',  ( -3.491481338843133355E-15, 1.224646799147353207E-16, -1.000000000000000000 ) ) ;
#153 = LOCAL_TIME ( 7, 15, 57.00000000000000000, #90 ) ;
#154 = CARTESIAN_POINT ( 'NONE',  ( 4.304678644990302666E-14, -1.509878018048370106E-15, 12.32908965343808383 ) ) ;
#155 = FACE_OUTER_BOUND ( 'NONE', #118, .T. ) ;
#156 = APPROVAL_ROLE ( '' ) ;
#157 = MECHANICAL_CONTEXT ( 'NONE', #127, 'mechanical' ) ;
#158 = DIRECTION ( 'NONE',  ( 3.491481338843133355E-15, -1.224646799147353207E-16, 1.000000000000000000 ) ) ;
#159 = APPROVAL ( #17, 'UNSPECIFIED' ) ;
#160 = APPROVAL_STATUS ( 'not_yet_approved' ) ;
#161 = ADVANCED_BREP_SHAPE_REPRESENTATION ( '55441', ( #190, #42, #180 ), #9 ) ;
#162 = EDGE_LOOP ( 'NONE', ( #196 ) ) ;
#163 = SHAPE_DEFINITION_REPRESENTATION ( #171, #161 ) ;
#164 = CC_DESIGN_APPROVAL ( #77, ( #121 ) ) ;
#165 = EDGE_CURVE ( 'NONE', #56, #56, #62, .T. ) ;
#166 = DIRECTION ( 'NONE',  ( 4.275831445896958607E-31, 1.000000000000000000, 1.224646799147353207E-16 ) ) ;
#167 = DIRECTION ( 'NONE',  ( 0.0000000000000000000, 1.000000000000000000, 0.0000000000000000000 ) ) ;
#168 = CYLINDRICAL_SURFACE ( 'NONE', #64, 1.249999999999998446 ) ;
#169 = ORIENTED_EDGE ( 'NONE', *, *, #165, .T. ) ;
#170 = DIRECTION ( 'NONE',  ( -4.275831445896958607E-31, -1.000000000000000000, -1.224646799147353207E-16 ) ) ;
#171 = PRODUCT_DEFINITION_SHAPE ( 'NONE', 'NONE',  #197 ) ;
#172 = DIRECTION ( 'NONE',  ( 1.000000000000000000, 0.0000000000000000000, 0.0000000000000000000 ) ) ;
#173 = EDGE_CURVE ( 'NONE', #74, #74, #25, .T. ) ;
#174 = PERSON_AND_ORGANIZATION_ROLE ( 'design_owner' ) ;
#175 =( LENGTH_UNIT ( ) NAMED_UNIT ( * ) SI_UNIT ( .MILLI., .METRE. ) );
#176 = AXIS2_PLACEMENT_3D ( 'NONE', #184, #10, #84 ) ;
#177 = PERSON_AND_ORGANIZATION_ROLE ( 'creator' ) ;
#178 = DATE_AND_TIME ( #131, #179 ) ;
#179 = LOCAL_TIME ( 7, 15, 57.00000000000000000, #128 ) ;
#180 = AXIS2_PLACEMENT_3D ( 'NONE', #111, #145, #172 ) ;
#181 = ADVANCED_FACE ( 'NONE', ( #31 ), #199, .F. ) ;
#182 = CARTESIAN_POINT ( 'NONE',  ( 1.501336975702547217E-13, -5.265981236333618470E-15, 43.00000000000000000 ) ) ;
#183 = CONICAL_SURFACE ( 'NONE', #45, 0.9500000000000008438, 0.7853981633974336241 ) ;
#184 = CARTESIAN_POINT ( 'NONE',  ( 4.189777606611760657E-14, -2.044936283779689079E-31, 12.00000000000000178 ) ) ;
#185 = CC_DESIGN_APPROVAL ( #123, ( #1 ) ) ;
#186 = DIRECTION ( 'NONE',  ( 4.275831445896958607E-31, 1.000000000000000000, 1.224646799147353207E-16 ) ) ;
#187 = DIRECTION ( 'NONE',  ( 0.0000000000000000000, 1.000000000000000000, 0.0000000000000000000 ) ) ;
#188 = DIRECTION ( 'NONE',  ( -3.491481338843133355E-15, 1.224646799147353207E-16, -1.000000000000000000 ) ) ;
#189 = CONICAL_SURFACE ( 'NONE', #132, 1.249999999999996447, 0.5235987755982943748 ) ;
#190 = MANIFOLD_SOLID_BREP ( 'Corps-Déplacer/Copier1[1]', #104 ) ;
#191 = PERSON_AND_ORGANIZATION ( #16, #65 ) ;
#192 = VERTEX_POINT ( 'NONE', #36 ) ;
#193 = APPROVAL_PERSON_ORGANIZATION ( #92, #77, #156 ) ;
#194 = CARTESIAN_POINT ( 'NONE',  ( 4.304678644990302666E-14, 1.249999999999994893, 12.32908965343808383 ) ) ;
#195 = CC_DESIGN_SECURITY_CLASSIFICATION ( #1, ( #121 ) ) ;
#196 = ORIENTED_EDGE ( 'NONE', *, *, #113, .T. ) ;
#197 = PRODUCT_DEFINITION ( 'UNKNOWN', '', #121, #18 ) ;
#198 = ORIENTED_EDGE ( 'NONE', *, *, #173, .F. ) ;
#199 = PLANE ( 'NONE',  #176 ) ;
#200 = AXIS2_PLACEMENT_3D ( 'NONE', #8, #32, #66 ) ;
#201 = CARTESIAN_POINT ( 'NONE',  ( 2.223767256895308873E-15, -7.799925558553542994E-17, 0.6369122561692200923 ) ) ;
#202 = FACE_OUTER_BOUND ( 'NONE', #96, .T. ) ;
#203 = APPLICATION_CONTEXT ( 'configuration controlled 3d designs of mechanical parts and assemblies' ) ;
#204 = DIRECTION ( 'NONE',  ( 0.0000000000000000000, 1.000000000000000000, 0.0000000000000000000 ) ) ;
#205 = FACE_BOUND ( 'NONE', #147, .T. ) ;
#206 = VERTEX_POINT ( 'NONE', #34 ) ;
#207 = CARTESIAN_POINT ( 'NONE',  ( 4.189777606611761289E-14, 1.060000000000000275, 12.00000000000000355 ) ) ;
#208 = COORDINATED_UNIVERSAL_TIME_OFFSET ( 1, 0, .AHEAD. ) ;
#209 = ORIENTED_EDGE ( 'NONE', *, *, #48, .F. ) ;
#210 = PERSON_AND_ORGANIZATION ( #16, #65 ) ;
#211 = DATE_AND_TIME ( #63, #69 ) ;
#212 = AXIS2_PLACEMENT_3D ( 'NONE', #13, #139, #167 ) ;
#213 = CC_DESIGN_PERSON_AND_ORGANIZATION_ASSIGNMENT ( #210, #24, ( #1 ) ) ;
#214 = FACE_OUTER_BOUND ( 'NONE', #44, .T. ) ;
#215 = DIRECTION ( 'NONE',  ( 3.491481338843133355E-15, -1.224646799147353207E-16, 1.000000000000000000 ) ) ;
#216 = CARTESIAN_POINT ( 'NONE',  ( 4.189777606611760657E-14, -2.044936283779689079E-31, 12.00000000000000178 ) ) ;
#217 = ADVANCED_FACE ( 'NONE', ( #151, #103 ), #189, .T. ) ;
#218 = DIRECTION ( 'NONE',  ( 3.491481338843133355E-15, -1.224646799147353207E-16, 1.000000000000000000 ) ) ;
#219 = CALENDAR_DATE ( 2021, 8, 10 ) ;
#220 = CARTESIAN_POINT ( 'NONE',  ( 1.490862531686017501E-13, 1.249999999999995559, 42.69999999999998863 ) ) ;
#221 = CLOSED_SHELL ( 'NONE', ( #133, #141, #14 ) ) ;
#222 = CONICAL_SURFACE ( 'NONE', #28, 1.059999999999998499, 1.029744258676649649 ) ;
#223 = COORDINATED_UNIVERSAL_TIME_OFFSET ( 1, 0, .AHEAD. ) ;
ENDSEC;
END-ISO-10303-21;
