ISO-10303-21;
HEADER;
FILE_DESCRIPTION (( 'STEP AP203' ),
    '1' );
FILE_NAME ('55440.step',
    '2021-10-08T05:15:56',
    ( '' ),
    ( '' ),
    'SwSTEP 2.0',
    'SolidWorks 2019',
    '' );
FILE_SCHEMA (( 'CONFIG_CONTROL_DESIGN' ));
ENDSEC;

DATA;
#1 = AXIS2_PLACEMENT_3D ( 'NONE', #98, #95, #100 ) ;
#2 = PERSON_AND_ORGANIZATION_ROLE ( 'design_supplier' ) ;
#3 = DATE_TIME_ROLE ( 'classification_date' ) ;
#4 = AXIS2_PLACEMENT_3D ( 'NONE', #161, #107, #127 ) ;
#5 = ADVANCED_FACE ( 'NONE', ( #146 ), #217, .F. ) ;
#6 = FACE_OUTER_BOUND ( 'NONE', #142, .T. ) ;
#7 = EDGE_LOOP ( 'NONE', ( #23 ) ) ;
#8 = DIRECTION ( 'NONE',  ( -3.491481338843133355E-15, 1.224646799147353207E-16, -1.000000000000000000 ) ) ;
#9 = CARTESIAN_POINT ( 'NONE',  ( 0.0000000000000000000, 0.0000000000000000000, 0.0000000000000000000 ) ) ;
#10 = LOCAL_TIME ( 7, 15, 56.00000000000000000, #50 ) ;
#11 = DIRECTION ( 'NONE',  ( 0.0000000000000000000, 0.0000000000000000000, 1.000000000000000000 ) ) ;
#12 =( NAMED_UNIT ( * ) SI_UNIT ( $, .STERADIAN. ) SOLID_ANGLE_UNIT ( ) );
#13 = CARTESIAN_POINT ( 'NONE',  ( 1.501336975702547217E-13, -5.265981236333618470E-15, 43.00000000000000000 ) ) ;
#14 = DATE_AND_TIME ( #16, #64 ) ;
#15 = PRODUCT_DEFINITION_FORMATION_WITH_SPECIFIED_SOURCE ( 'ANY', '', #208, .NOT_KNOWN. ) ;
#16 = CALENDAR_DATE ( 2021, 8, 10 ) ;
#17 = APPROVAL ( #186, 'UNSPECIFIED' ) ;
#18 = APPROVAL_ROLE ( '' ) ;
#19 = AXIS2_PLACEMENT_3D ( 'NONE', #78, #113, #165 ) ;
#20 = CYLINDRICAL_SURFACE ( 'NONE', #30, 1.249999999999998446 ) ;
#21 = DIRECTION ( 'NONE',  ( 3.491481338843133355E-15, -1.224646799147353207E-16, 1.000000000000000000 ) ) ;
#22 = SECURITY_CLASSIFICATION ( '', '', #66 ) ;
#23 = ORIENTED_EDGE ( 'NONE', *, *, #129, .F. ) ;
#24 = ADVANCED_BREP_SHAPE_REPRESENTATION ( '55440', ( #108, #103, #58 ), #162 ) ;
#25 = FACE_BOUND ( 'NONE', #41, .T. ) ;
#26 = DIRECTION ( 'NONE',  ( -3.491481338843133355E-15, 1.224646799147353207E-16, -1.000000000000000000 ) ) ;
#27 = DIRECTION ( 'NONE',  ( -3.491481338843133355E-15, 1.224646799147353207E-16, -1.000000000000000000 ) ) ;
#28 = CC_DESIGN_PERSON_AND_ORGANIZATION_ASSIGNMENT ( #188, #172, ( #22 ) ) ;
#29 =( NAMED_UNIT ( * ) PLANE_ANGLE_UNIT ( ) SI_UNIT ( $, .RADIAN. ) );
#30 = AXIS2_PLACEMENT_3D ( 'NONE', #62, #182, #65 ) ;
#31 = DATE_TIME_ROLE ( 'creation_date' ) ;
#32 = PERSON_AND_ORGANIZATION ( #199, #99 ) ;
#33 = APPROVAL_DATE_TIME ( #49, #187 ) ;
#34 = CIRCLE ( 'NONE', #73, 0.9500000000000008438 ) ;
#35 = PERSON_AND_ORGANIZATION ( #199, #99 ) ;
#36 = EDGE_LOOP ( 'NONE', ( #145 ) ) ;
#37 = EDGE_LOOP ( 'NONE', ( #126 ) ) ;
#38 = EDGE_LOOP ( 'NONE', ( #194 ) ) ;
#39 = DIRECTION ( 'NONE',  ( 3.491481338843133355E-15, -1.224646799147353207E-16, 1.000000000000000000 ) ) ;
#40 = AXIS2_PLACEMENT_3D ( 'NONE', #112, #8, #94 ) ;
#41 = EDGE_LOOP ( 'NONE', ( #178 ) ) ;
#42 = DESIGN_CONTEXT ( 'detailed design', #177, 'design' ) ;
#43 = DIRECTION ( 'NONE',  ( 0.0000000000000000000, 1.000000000000000000, 0.0000000000000000000 ) ) ;
#44 = PERSON_AND_ORGANIZATION_ROLE ( 'design_owner' ) ;
#45 = VERTEX_POINT ( 'NONE', #59 ) ;
#46 = APPLICATION_PROTOCOL_DEFINITION ( 'international standard', 'config_control_design', 1994, #177 ) ;
#47 = CARTESIAN_POINT ( 'NONE',  ( 0.0000000000000000000, 0.0000000000000000000, 0.0000000000000000000 ) ) ;
#48 = PRODUCT_DEFINITION ( 'UNKNOWN', '', #15, #42 ) ;
#49 = DATE_AND_TIME ( #137, #10 ) ;
#50 = COORDINATED_UNIVERSAL_TIME_OFFSET ( 1, 0, .AHEAD. ) ;
#51 = CC_DESIGN_PERSON_AND_ORGANIZATION_ASSIGNMENT ( #82, #190, ( #48 ) ) ;
#52 = LOCAL_TIME ( 7, 15, 56.00000000000000000, #185 ) ;
#53 = CALENDAR_DATE ( 2021, 8, 10 ) ;
#54 = FACE_OUTER_BOUND ( 'NONE', #160, .T. ) ;
#55 = CC_DESIGN_APPROVAL ( #17, ( #48 ) ) ;
#56 = FACE_BOUND ( 'NONE', #36, .T. ) ;
#57 = DIRECTION ( 'NONE',  ( 4.275831445896958607E-31, 1.000000000000000000, 1.224646799147353207E-16 ) ) ;
#58 = AXIS2_PLACEMENT_3D ( 'NONE', #47, #11, #135 ) ;
#59 = CARTESIAN_POINT ( 'NONE',  ( 4.189777606611760026E-14, 1.049999999999998046, 12.00000000000000000 ) ) ;
#60 = MECHANICAL_CONTEXT ( 'NONE', #205, 'mechanical' ) ;
#61 = ADVANCED_FACE ( 'NONE', ( #216, #56 ), #143, .T. ) ;
#62 = CARTESIAN_POINT ( 'NONE',  ( 0.0000000000000000000, 0.0000000000000000000, 0.0000000000000000000 ) ) ;
#63 = VERTEX_POINT ( 'NONE', #132 ) ;
#64 = LOCAL_TIME ( 7, 15, 56.00000000000000000, #119 ) ;
#65 = DIRECTION ( 'NONE',  ( 4.275831445896959482E-31, 1.000000000000000000, 1.224646799147353207E-16 ) ) ;
#66 = SECURITY_CLASSIFICATION_LEVEL ( 'unclassified' ) ;
#67 = CC_DESIGN_PERSON_AND_ORGANIZATION_ASSIGNMENT ( #202, #44, ( #208 ) ) ;
#68 = APPROVAL_ROLE ( '' ) ;
#69 = CLOSED_SHELL ( 'NONE', ( #5, #201, #156, #61, #92 ) ) ;
#70 = CYLINDRICAL_SURFACE ( 'NONE', #88, 1.049999999999999156 ) ;
#71 = CARTESIAN_POINT ( 'NONE',  ( 4.189777606611760026E-14, 7.873738858974726440E-33, 12.00000000000000000 ) ) ;
#72 = AXIS2_PLACEMENT_3D ( 'NONE', #71, #21, #91 ) ;
#73 = AXIS2_PLACEMENT_3D ( 'NONE', #13, #27, #43 ) ;
#74 = FACE_OUTER_BOUND ( 'NONE', #38, .T. ) ;
#75 = DIRECTION ( 'NONE',  ( -3.491481338843133355E-15, 1.224646799147353207E-16, -1.000000000000000000 ) ) ;
#76 = ORIENTED_EDGE ( 'NONE', *, *, #222, .T. ) ;
#77 = CARTESIAN_POINT ( 'NONE',  ( 4.189777606611760026E-14, -1.469576158976823947E-15, 12.00000000000000000 ) ) ;
#78 = CARTESIAN_POINT ( 'NONE',  ( 4.310726068062857044E-14, -1.511999168525819800E-15, 12.34641016151377357 ) ) ;
#79 = CC_DESIGN_PERSON_AND_ORGANIZATION_ASSIGNMENT ( #83, #2, ( #15 ) ) ;
#80 = PRODUCT_DEFINITION_SHAPE ( 'NONE', 'NONE',  #48 ) ;
#81 = FACE_OUTER_BOUND ( 'NONE', #197, .T. ) ;
#82 = PERSON_AND_ORGANIZATION ( #199, #99 ) ;
#83 = PERSON_AND_ORGANIZATION ( #199, #99 ) ;
#84 = SHAPE_DEFINITION_REPRESENTATION ( #80, #24 ) ;
#85 = COORDINATED_UNIVERSAL_TIME_OFFSET ( 1, 0, .AHEAD. ) ;
#86 = EDGE_CURVE ( 'NONE', #97, #97, #196, .T. ) ;
#87 = DATE_AND_TIME ( #117, #52 ) ;
#88 = AXIS2_PLACEMENT_3D ( 'NONE', #9, #75, #141 ) ;
#89 = LOCAL_TIME ( 7, 15, 56.00000000000000000, #154 ) ;
#90 = CARTESIAN_POINT ( 'NONE',  ( 2.202788320509504307E-15, -7.726341355170964144E-17, 0.6309036499789444363 ) ) ;
#91 = DIRECTION ( 'NONE',  ( -4.275831445896958607E-31, -1.000000000000000000, -1.224646799147353207E-16 ) ) ;
#92 = ADVANCED_FACE ( 'NONE', ( #193 ), #179, .F. ) ;
#93 = ORIENTED_EDGE ( 'NONE', *, *, #86, .T. ) ;
#94 = DIRECTION ( 'NONE',  ( 0.0000000000000000000, 1.000000000000000000, 0.0000000000000000000 ) ) ;
#95 = DIRECTION ( 'NONE',  ( -3.491481338843133355E-15, 1.224646799147353207E-16, -1.000000000000000000 ) ) ;
#96 = CC_DESIGN_APPROVAL ( #187, ( #22 ) ) ;
#97 = VERTEX_POINT ( 'NONE', #164 ) ;
#98 = CARTESIAN_POINT ( 'NONE',  ( 1.490862531686017501E-13, -5.229241832359196822E-15, 42.69999999999998863 ) ) ;
#99 = ORGANIZATION ( 'UNSPECIFIED', 'UNSPECIFIED', '' ) ;
#100 = DIRECTION ( 'NONE',  ( 0.0000000000000000000, 1.000000000000000000, 0.0000000000000000000 ) ) ;
#101 = APPROVAL_STATUS ( 'not_yet_approved' ) ;
#102 = APPROVAL_ROLE ( '' ) ;
#103 = MANIFOLD_SOLID_BREP ( 'Corps-Déplacer/Copier1[2]', #169 ) ;
#104 = DATE_AND_TIME ( #53, #89 ) ;
#105 = CARTESIAN_POINT ( 'NONE',  ( 1.501336975702547217E-13, 7.123858967643751109E-33, 43.00000000000000000 ) ) ;
#106 = CC_DESIGN_APPROVAL ( #150, ( #15 ) ) ;
#107 = DIRECTION ( 'NONE',  ( -3.491481338843133355E-15, 1.224646799147353207E-16, -1.000000000000000000 ) ) ;
#108 = MANIFOLD_SOLID_BREP ( 'Corps-Déplacer/Copier1[1]', #69 ) ;
#109 = ORIENTED_EDGE ( 'NONE', *, *, #170, .F. ) ;
#110 = DIRECTION ( 'NONE',  ( -3.491481338843133355E-15, 1.224646799147353207E-16, -1.000000000000000000 ) ) ;
#111 = AXIS2_PLACEMENT_3D ( 'NONE', #144, #39, #176 ) ;
#112 = CARTESIAN_POINT ( 'NONE',  ( 4.310726068062857044E-14, -1.511999168525819800E-15, 12.34641016151377357 ) ) ;
#113 = DIRECTION ( 'NONE',  ( 3.491481338843133355E-15, -1.224646799147353207E-16, 1.000000000000000000 ) ) ;
#114 = DIRECTION ( 'NONE',  ( -3.491481338843133355E-15, 1.224646799147353207E-16, -1.000000000000000000 ) ) ;
#115 = ADVANCED_FACE ( 'NONE', ( #74 ), #212, .T. ) ;
#116 = DIRECTION ( 'NONE',  ( 0.0000000000000000000, 1.000000000000000000, 0.0000000000000000000 ) ) ;
#117 = CALENDAR_DATE ( 2021, 8, 10 ) ;
#118 = PRODUCT_RELATED_PRODUCT_CATEGORY ( 'detail', '', ( #208 ) ) ;
#119 = COORDINATED_UNIVERSAL_TIME_OFFSET ( 1, 0, .AHEAD. ) ;
#120 = AXIS2_PLACEMENT_3D ( 'NONE', #105, #211, #57 ) ;
#121 = AXIS2_PLACEMENT_3D ( 'NONE', #151, #183, #200 ) ;
#122 = APPROVAL_DATE_TIME ( #104, #17 ) ;
#123 = ORIENTED_EDGE ( 'NONE', *, *, #86, .F. ) ;
#124 = FACE_OUTER_BOUND ( 'NONE', #215, .T. ) ;
#125 = APPROVAL_PERSON_ORGANIZATION ( #171, #17, #18 ) ;
#126 = ORIENTED_EDGE ( 'NONE', *, *, #222, .F. ) ;
#127 = DIRECTION ( 'NONE',  ( 0.0000000000000000000, 1.000000000000000000, 0.0000000000000000000 ) ) ;
#128 = ORIENTED_EDGE ( 'NONE', *, *, #191, .F. ) ;
#129 = EDGE_CURVE ( 'NONE', #63, #63, #140, .T. ) ;
#130 = UNCERTAINTY_MEASURE_WITH_UNIT (LENGTH_MEASURE( 1.000000000000000082E-05 ), #220, 'distance_accuracy_value', 'NONE');
#131 = VERTEX_POINT ( 'NONE', #219 ) ;
#132 = CARTESIAN_POINT ( 'NONE',  ( 2.202788320509504701E-15, 1.049999999999998712, 0.6309036499789445473 ) ) ;
#133 = APPROVAL_PERSON_ORGANIZATION ( #32, #150, #102 ) ;
#134 = ADVANCED_FACE ( 'NONE', ( #159, #6 ), #70, .T. ) ;
#135 = DIRECTION ( 'NONE',  ( 1.000000000000000000, 0.0000000000000000000, 0.0000000000000000000 ) ) ;
#136 = VERTEX_POINT ( 'NONE', #149 ) ;
#137 = CALENDAR_DATE ( 2021, 8, 10 ) ;
#138 = APPROVAL_PERSON_ORGANIZATION ( #207, #187, #68 ) ;
#139 = CALENDAR_DATE ( 2021, 8, 10 ) ;
#140 = CIRCLE ( 'NONE', #184, 1.049999999999998712 ) ;
#141 = DIRECTION ( 'NONE',  ( 4.275831445896958607E-31, 1.000000000000000000, 1.224646799147353207E-16 ) ) ;
#142 = EDGE_LOOP ( 'NONE', ( #195 ) ) ;
#143 = CONICAL_SURFACE ( 'NONE', #4, 0.9500000000000008438, 0.7853981633974336241 ) ;
#144 = CARTESIAN_POINT ( 'NONE',  ( 2.202788320509504307E-15, -7.726341355170964144E-17, 0.6309036499789444363 ) ) ;
#145 = ORIENTED_EDGE ( 'NONE', *, *, #191, .T. ) ;
#146 = FACE_OUTER_BOUND ( 'NONE', #180, .T. ) ;
#147 = CIRCLE ( 'NONE', #157, 1.049999999999999600 ) ;
#148 = DIRECTION ( 'NONE',  ( 0.0000000000000000000, 1.000000000000000000, 0.0000000000000000000 ) ) ;
#149 = CARTESIAN_POINT ( 'NONE',  ( 1.490862531686017501E-13, 1.249999999999995559, 42.69999999999998863 ) ) ;
#150 = APPROVAL ( #168, 'UNSPECIFIED' ) ;
#151 = CARTESIAN_POINT ( 'NONE',  ( 4.189777606611760026E-14, 7.873738858974726440E-33, 12.00000000000000000 ) ) ;
#152 = APPROVAL_DATE_TIME ( #14, #150 ) ;
#153 = CC_DESIGN_SECURITY_CLASSIFICATION ( #22, ( #15 ) ) ;
#154 = COORDINATED_UNIVERSAL_TIME_OFFSET ( 1, 0, .AHEAD. ) ;
#155 = DATE_AND_TIME ( #139, #209 ) ;
#156 = ADVANCED_FACE ( 'NONE', ( #54, #124 ), #20, .T. ) ;
#157 = AXIS2_PLACEMENT_3D ( 'NONE', #166, #114, #148 ) ;
#158 = CC_DESIGN_PERSON_AND_ORGANIZATION_ASSIGNMENT ( #35, #210, ( #15 ) ) ;
#159 = FACE_OUTER_BOUND ( 'NONE', #7, .T. ) ;
#160 = EDGE_LOOP ( 'NONE', ( #123 ) ) ;
#161 = CARTESIAN_POINT ( 'NONE',  ( 1.501336975702547217E-13, -5.265981236333618470E-15, 43.00000000000000000 ) ) ;
#162 =( GEOMETRIC_REPRESENTATION_CONTEXT ( 3 ) GLOBAL_UNCERTAINTY_ASSIGNED_CONTEXT ( ( #130 ) ) GLOBAL_UNIT_ASSIGNED_CONTEXT ( ( #220, #29, #12 ) ) REPRESENTATION_CONTEXT ( 'NONE', 'WORKASPACE' ) );
#163 = DIRECTION ( 'NONE',  ( 3.668437989309025156E-31, 1.000000000000000000, 1.032573497605243580E-16 ) ) ;
#164 = CARTESIAN_POINT ( 'NONE',  ( 4.310726068062857044E-14, 1.249999999999994893, 12.34641016151377357 ) ) ;
#165 = DIRECTION ( 'NONE',  ( 0.0000000000000000000, -1.000000000000000000, 0.0000000000000000000 ) ) ;
#166 = CARTESIAN_POINT ( 'NONE',  ( 4.189777606611760026E-14, -1.469576158976823947E-15, 12.00000000000000000 ) ) ;
#167 = CC_DESIGN_DATE_AND_TIME_ASSIGNMENT ( #87, #31, ( #48 ) ) ;
#168 = APPROVAL_STATUS ( 'not_yet_approved' ) ;
#169 = CLOSED_SHELL ( 'NONE', ( #115, #134, #214 ) ) ;
#170 = EDGE_CURVE ( 'NONE', #45, #45, #147, .T. ) ;
#171 = PERSON_AND_ORGANIZATION ( #199, #99 ) ;
#172 = PERSON_AND_ORGANIZATION_ROLE ( 'classification_officer' ) ;
#173 = EDGE_CURVE ( 'NONE', #223, #223, #174, .T. ) ;
#174 = CIRCLE ( 'NONE', #189, 1.049999999999999600 ) ;
#175 = ORIENTED_EDGE ( 'NONE', *, *, #173, .T. ) ;
#176 = DIRECTION ( 'NONE',  ( -3.668437989309025156E-31, -1.000000000000000000, -1.032573497605243580E-16 ) ) ;
#177 = APPLICATION_CONTEXT ( 'configuration controlled 3d designs of mechanical parts and assemblies' ) ;
#178 = ORIENTED_EDGE ( 'NONE', *, *, #173, .F. ) ;
#179 = PLANE ( 'NONE',  #120 ) ;
#180 = EDGE_LOOP ( 'NONE', ( #175 ) ) ;
#181 = PLANE ( 'NONE',  #121 ) ;
#182 = DIRECTION ( 'NONE',  ( -3.491481338843133355E-15, 1.224646799147353207E-16, -1.000000000000000000 ) ) ;
#183 = DIRECTION ( 'NONE',  ( 3.491481338843133355E-15, -1.224646799147353207E-16, 1.000000000000000000 ) ) ;
#184 = AXIS2_PLACEMENT_3D ( 'NONE', #90, #110, #163 ) ;
#185 = COORDINATED_UNIVERSAL_TIME_OFFSET ( 1, 0, .AHEAD. ) ;
#186 = APPROVAL_STATUS ( 'not_yet_approved' ) ;
#187 = APPROVAL ( #101, 'UNSPECIFIED' ) ;
#188 = PERSON_AND_ORGANIZATION ( #199, #99 ) ;
#189 = AXIS2_PLACEMENT_3D ( 'NONE', #77, #26, #116 ) ;
#190 = PERSON_AND_ORGANIZATION_ROLE ( 'creator' ) ;
#191 = EDGE_CURVE ( 'NONE', #131, #131, #34, .T. ) ;
#192 = EDGE_LOOP ( 'NONE', ( #93 ) ) ;
#193 = FACE_OUTER_BOUND ( 'NONE', #213, .T. ) ;
#194 = ORIENTED_EDGE ( 'NONE', *, *, #129, .T. ) ;
#195 = ORIENTED_EDGE ( 'NONE', *, *, #170, .T. ) ;
#196 = CIRCLE ( 'NONE', #40, 1.249999999999996447 ) ;
#197 = EDGE_LOOP ( 'NONE', ( #109 ) ) ;
#198 = CONICAL_SURFACE ( 'NONE', #19, 1.249999999999996447, 0.5235987755982951519 ) ;
#199 = PERSON ( 'UNSPECIFIED', 'UNSPECIFIED', 'UNSPECIFIED', ('UNSPECIFIED'), ('UNSPECIFIED'), ('UNSPECIFIED') ) ;
#200 = DIRECTION ( 'NONE',  ( -4.275831445896958607E-31, -1.000000000000000000, -1.224646799147353207E-16 ) ) ;
#201 = ADVANCED_FACE ( 'NONE', ( #25, #204 ), #198, .T. ) ;
#202 = PERSON_AND_ORGANIZATION ( #199, #99 ) ;
#203 = CARTESIAN_POINT ( 'NONE',  ( 4.189777606611760026E-14, 1.049999999999998046, 12.00000000000000000 ) ) ;
#204 = FACE_OUTER_BOUND ( 'NONE', #192, .T. ) ;
#205 = APPLICATION_CONTEXT ( 'configuration controlled 3d designs of mechanical parts and assemblies' ) ;
#206 = CC_DESIGN_DATE_AND_TIME_ASSIGNMENT ( #155, #3, ( #22 ) ) ;
#207 = PERSON_AND_ORGANIZATION ( #199, #99 ) ;
#208 = PRODUCT ( '55440', '55440', '', ( #60 ) ) ;
#209 = LOCAL_TIME ( 7, 15, 56.00000000000000000, #85 ) ;
#210 = PERSON_AND_ORGANIZATION_ROLE ( 'creator' ) ;
#211 = DIRECTION ( 'NONE',  ( -3.491481338843133355E-15, 1.224646799147353207E-16, -1.000000000000000000 ) ) ;
#212 = CONICAL_SURFACE ( 'NONE', #111, 1.049999999999998712, 1.029744258676649649 ) ;
#213 = EDGE_LOOP ( 'NONE', ( #128 ) ) ;
#214 = ADVANCED_FACE ( 'NONE', ( #81 ), #181, .T. ) ;
#215 = EDGE_LOOP ( 'NONE', ( #76 ) ) ;
#216 = FACE_OUTER_BOUND ( 'NONE', #37, .T. ) ;
#217 = PLANE ( 'NONE',  #72 ) ;
#218 = APPLICATION_PROTOCOL_DEFINITION ( 'international standard', 'config_control_design', 1994, #205 ) ;
#219 = CARTESIAN_POINT ( 'NONE',  ( 1.501336975702547217E-13, 0.9499999999999955147, 43.00000000000000000 ) ) ;
#220 =( LENGTH_UNIT ( ) NAMED_UNIT ( * ) SI_UNIT ( .MILLI., .METRE. ) );
#221 = CIRCLE ( 'NONE', #1, 1.250000000000000666 ) ;
#222 = EDGE_CURVE ( 'NONE', #136, #136, #221, .T. ) ;
#223 = VERTEX_POINT ( 'NONE', #203 ) ;
ENDSEC;
END-ISO-10303-21;
