ISO-10303-21;
HEADER;
FILE_DESCRIPTION (( 'STEP AP203' ),
    '1' );
FILE_NAME ('55439.step',
    '2021-10-08T05:15:55',
    ( '' ),
    ( '' ),
    'SwSTEP 2.0',
    'SolidWorks 2019',
    '' );
FILE_SCHEMA (( 'CONFIG_CONTROL_DESIGN' ));
ENDSEC;

DATA;
#1 = EDGE_LOOP ( 'NONE', ( #18 ) ) ;
#2 = DIRECTION ( 'NONE',  ( -4.275831445896958607E-31, -1.000000000000000000, -1.224646799147353207E-16 ) ) ;
#3 = ADVANCED_FACE ( 'NONE', ( #141 ), #154, .F. ) ;
#4 = AXIS2_PLACEMENT_3D ( 'NONE', #173, #137, #202 ) ;
#5 = ORGANIZATION ( 'UNSPECIFIED', 'UNSPECIFIED', '' ) ;
#6 = CYLINDRICAL_SURFACE ( 'NONE', #31, 1.009999999999994236 ) ;
#7 = CARTESIAN_POINT ( 'NONE',  ( 0.0000000000000000000, 0.0000000000000000000, 0.0000000000000000000 ) ) ;
#8 = CLOSED_SHELL ( 'NONE', ( #118, #100, #91, #39, #3 ) ) ;
#9 = VERTEX_POINT ( 'NONE', #129 ) ;
#10 = FACE_BOUND ( 'NONE', #75, .T. ) ;
#11 = DIRECTION ( 'NONE',  ( 0.0000000000000000000, 0.0000000000000000000, 1.000000000000000000 ) ) ;
#12 = PERSON_AND_ORGANIZATION_ROLE ( 'creator' ) ;
#13 = CIRCLE ( 'NONE', #127, 0.9500000000000008438 ) ;
#14 = PERSON_AND_ORGANIZATION ( #105, #5 ) ;
#15 = COORDINATED_UNIVERSAL_TIME_OFFSET ( 1, 0, .AHEAD. ) ;
#16 = CALENDAR_DATE ( 2021, 8, 10 ) ;
#17 = FACE_BOUND ( 'NONE', #104, .T. ) ;
#18 = ORIENTED_EDGE ( 'NONE', *, *, #97, .F. ) ;
#19 = ORIENTED_EDGE ( 'NONE', *, *, #186, .T. ) ;
#20 = FACE_OUTER_BOUND ( 'NONE', #29, .T. ) ;
#21 = DIRECTION ( 'NONE',  ( 0.0000000000000000000, 1.000000000000000000, 0.0000000000000000000 ) ) ;
#22 = VERTEX_POINT ( 'NONE', #114 ) ;
#23 = CC_DESIGN_PERSON_AND_ORGANIZATION_ASSIGNMENT ( #96, #153, ( #66 ) ) ;
#24 = CARTESIAN_POINT ( 'NONE',  ( 0.0000000000000000000, 0.0000000000000000000, 0.0000000000000000000 ) ) ;
#25 = APPROVAL_PERSON_ORGANIZATION ( #98, #211, #133 ) ;
#26 = CIRCLE ( 'NONE', #157, 1.009999999999995124 ) ;
#27 = PERSON_AND_ORGANIZATION ( #105, #5 ) ;
#28 = ORIENTED_EDGE ( 'NONE', *, *, #186, .F. ) ;
#29 = EDGE_LOOP ( 'NONE', ( #48 ) ) ;
#30 = EDGE_LOOP ( 'NONE', ( #28 ) ) ;
#31 = AXIS2_PLACEMENT_3D ( 'NONE', #7, #144, #32 ) ;
#32 = DIRECTION ( 'NONE',  ( 4.275831445896958607E-31, 1.000000000000000000, 1.224646799147353207E-16 ) ) ;
#33 = CARTESIAN_POINT ( 'NONE',  ( 4.189777606611760026E-14, 7.573786902442321255E-33, 12.00000000000000000 ) ) ;
#34 = CONICAL_SURFACE ( 'NONE', #142, 0.9500000000000008438, 0.7853981633974336241 ) ;
#35 = CYLINDRICAL_SURFACE ( 'NONE', #147, 1.249999999999998446 ) ;
#36 = DIRECTION ( 'NONE',  ( -3.491481338843133355E-15, 1.224646799147353207E-16, -1.000000000000000000 ) ) ;
#37 = COORDINATED_UNIVERSAL_TIME_OFFSET ( 1, 0, .AHEAD. ) ;
#38 = AXIS2_PLACEMENT_3D ( 'NONE', #24, #11, #199 ) ;
#39 = ADVANCED_FACE ( 'NONE', ( #88, #17 ), #34, .T. ) ;
#40 = PERSON_AND_ORGANIZATION ( #105, #5 ) ;
#41 = APPLICATION_CONTEXT ( 'configuration controlled 3d designs of mechanical parts and assemblies' ) ;
#42 = SECURITY_CLASSIFICATION_LEVEL ( 'unclassified' ) ;
#43 = CIRCLE ( 'NONE', #4, 1.009999999999993348 ) ;
#44 = CC_DESIGN_APPROVAL ( #211, ( #66 ) ) ;
#45 = APPROVAL_DATE_TIME ( #182, #135 ) ;
#46 = ADVANCED_FACE ( 'NONE', ( #90 ), #121, .T. ) ;
#47 = APPLICATION_CONTEXT ( 'configuration controlled 3d designs of mechanical parts and assemblies' ) ;
#48 = ORIENTED_EDGE ( 'NONE', *, *, #86, .F. ) ;
#49 = CARTESIAN_POINT ( 'NONE',  ( 1.501336975702547217E-13, -5.265981236333618470E-15, 43.00000000000000000 ) ) ;
#50 = PRODUCT_DEFINITION_SHAPE ( 'NONE', 'NONE',  #61 ) ;
#51 = ADVANCED_BREP_SHAPE_REPRESENTATION ( '55439', ( #111, #183, #38 ), #161 ) ;
#52 = DIRECTION ( 'NONE',  ( 4.275831445896958607E-31, 1.000000000000000000, 1.224646799147353207E-16 ) ) ;
#53 = DIRECTION ( 'NONE',  ( -3.491481338843133355E-15, 1.224646799147353207E-16, -1.000000000000000000 ) ) ;
#54 = CONICAL_SURFACE ( 'NONE', #167, 1.249999999999996447, 0.5235987755982915992 ) ;
#55 = FACE_OUTER_BOUND ( 'NONE', #191, .T. ) ;
#56 = DIRECTION ( 'NONE',  ( 0.0000000000000000000, 1.000000000000000000, 0.0000000000000000000 ) ) ;
#57 =( LENGTH_UNIT ( ) NAMED_UNIT ( * ) SI_UNIT ( .MILLI., .METRE. ) );
#58 = EDGE_CURVE ( 'NONE', #125, #125, #26, .T. ) ;
#59 = VERTEX_POINT ( 'NONE', #112 ) ;
#60 = FACE_OUTER_BOUND ( 'NONE', #156, .T. ) ;
#61 = PRODUCT_DEFINITION ( 'UNKNOWN', '', #66, #150 ) ;
#62 = CALENDAR_DATE ( 2021, 8, 10 ) ;
#63 = COORDINATED_UNIVERSAL_TIME_OFFSET ( 1, 0, .AHEAD. ) ;
#64 = CC_DESIGN_PERSON_AND_ORGANIZATION_ASSIGNMENT ( #27, #12, ( #61 ) ) ;
#65 = DATE_TIME_ROLE ( 'classification_date' ) ;
#66 = PRODUCT_DEFINITION_FORMATION_WITH_SPECIFIED_SOURCE ( 'ANY', '', #190, .NOT_KNOWN. ) ;
#67 = DIRECTION ( 'NONE',  ( -3.491481338843133355E-15, 1.224646799147353207E-16, -1.000000000000000000 ) ) ;
#68 = ORIENTED_EDGE ( 'NONE', *, *, #58, .T. ) ;
#69 = AXIS2_PLACEMENT_3D ( 'NONE', #159, #223, #74 ) ;
#70 = CIRCLE ( 'NONE', #184, 1.009999999999995124 ) ;
#71 = SECURITY_CLASSIFICATION ( '', '', #42 ) ;
#72 = EDGE_LOOP ( 'NONE', ( #107 ) ) ;
#73 = ADVANCED_FACE ( 'NONE', ( #55 ), #171, .T. ) ;
#74 = DIRECTION ( 'NONE',  ( -4.275831445896958607E-31, -1.000000000000000000, -1.224646799147353207E-16 ) ) ;
#75 = EDGE_LOOP ( 'NONE', ( #222 ) ) ;
#76 = AXIS2_PLACEMENT_3D ( 'NONE', #33, #110, #2 ) ;
#77 = DIRECTION ( 'NONE',  ( -3.491481338843133355E-15, 1.224646799147353207E-16, -1.000000000000000000 ) ) ;
#78 = VERTEX_POINT ( 'NONE', #143 ) ;
#79 = CARTESIAN_POINT ( 'NONE',  ( 0.0000000000000000000, 0.0000000000000000000, 0.0000000000000000000 ) ) ;
#80 = DIRECTION ( 'NONE',  ( -3.491481338843133355E-15, 1.224646799147353207E-16, -1.000000000000000000 ) ) ;
#81 = APPROVAL_DATE_TIME ( #217, #211 ) ;
#82 = APPROVAL_STATUS ( 'not_yet_approved' ) ;
#83 = CC_DESIGN_PERSON_AND_ORGANIZATION_ASSIGNMENT ( #187, #84, ( #190 ) ) ;
#84 = PERSON_AND_ORGANIZATION_ROLE ( 'design_owner' ) ;
#85 = APPROVAL_STATUS ( 'not_yet_approved' ) ;
#86 = EDGE_CURVE ( 'NONE', #22, #22, #43, .T. ) ;
#87 = EDGE_LOOP ( 'NONE', ( #204 ) ) ;
#88 = FACE_OUTER_BOUND ( 'NONE', #30, .T. ) ;
#89 = ORIENTED_EDGE ( 'NONE', *, *, #146, .T. ) ;
#90 = FACE_OUTER_BOUND ( 'NONE', #1, .T. ) ;
#91 = ADVANCED_FACE ( 'NONE', ( #189, #212 ), #35, .T. ) ;
#92 = FACE_OUTER_BOUND ( 'NONE', #72, .T. ) ;
#93 = FACE_OUTER_BOUND ( 'NONE', #140, .T. ) ;
#94 = CARTESIAN_POINT ( 'NONE',  ( 4.334915760353080865E-14, 1.249999999999994893, 12.41569219381653966 ) ) ;
#95 = APPLICATION_PROTOCOL_DEFINITION ( 'international standard', 'config_control_design', 1994, #47 ) ;
#96 = PERSON_AND_ORGANIZATION ( #105, #5 ) ;
#97 = EDGE_CURVE ( 'NONE', #9, #9, #70, .T. ) ;
#98 = PERSON_AND_ORGANIZATION ( #105, #5 ) ;
#99 = APPROVAL_STATUS ( 'not_yet_approved' ) ;
#100 = ADVANCED_FACE ( 'NONE', ( #10, #92 ), #54, .T. ) ;
#101 = DIRECTION ( 'NONE',  ( -3.813722662152967456E-31, -1.000000000000000000, -1.073467497510407515E-16 ) ) ;
#102 = CLOSED_SHELL ( 'NONE', ( #73, #132, #46 ) ) ;
#103 = CIRCLE ( 'NONE', #123, 1.249999999999996447 ) ;
#104 = EDGE_LOOP ( 'NONE', ( #89 ) ) ;
#105 = PERSON ( 'UNSPECIFIED', 'UNSPECIFIED', 'UNSPECIFIED', ('UNSPECIFIED'), ('UNSPECIFIED'), ('UNSPECIFIED') ) ;
#106 = ORIENTED_EDGE ( 'NONE', *, *, #197, .F. ) ;
#107 = ORIENTED_EDGE ( 'NONE', *, *, #197, .T. ) ;
#108 = APPROVAL ( #85, 'UNSPECIFIED' ) ;
#109 = LOCAL_TIME ( 7, 15, 55.00000000000000000, #37 ) ;
#110 = DIRECTION ( 'NONE',  ( 3.491481338843133355E-15, -1.224646799147353207E-16, 1.000000000000000000 ) ) ;
#111 = MANIFOLD_SOLID_BREP ( 'Corps-Déplacer/Copier1[1]', #8 ) ;
#112 = CARTESIAN_POINT ( 'NONE',  ( 1.501336975702547217E-13, 0.9499999999999955147, 43.00000000000000000 ) ) ;
#113 = LOCAL_TIME ( 7, 15, 55.00000000000000000, #117 ) ;
#114 = CARTESIAN_POINT ( 'NONE',  ( 2.118872574966274603E-15, 1.009999999999993348, 0.6068692252178387037 ) ) ;
#115 = DIRECTION ( 'NONE',  ( 0.0000000000000000000, 1.000000000000000000, 0.0000000000000000000 ) ) ;
#116 = APPROVAL_ROLE ( '' ) ;
#117 = COORDINATED_UNIVERSAL_TIME_OFFSET ( 1, 0, .AHEAD. ) ;
#118 = ADVANCED_FACE ( 'NONE', ( #93 ), #128, .F. ) ;
#119 = APPROVAL_DATE_TIME ( #201, #108 ) ;
#120 = AXIS2_PLACEMENT_3D ( 'NONE', #138, #174, #52 ) ;
#121 = PLANE ( 'NONE',  #69 ) ;
#122 = ORIENTED_EDGE ( 'NONE', *, *, #97, .T. ) ;
#123 = AXIS2_PLACEMENT_3D ( 'NONE', #163, #80, #115 ) ;
#124 = DIRECTION ( 'NONE',  ( 3.491481338843133355E-15, -1.224646799147353207E-16, 1.000000000000000000 ) ) ;
#125 = VERTEX_POINT ( 'NONE', #162 ) ;
#126 =( NAMED_UNIT ( * ) PLANE_ANGLE_UNIT ( ) SI_UNIT ( $, .RADIAN. ) );
#127 = AXIS2_PLACEMENT_3D ( 'NONE', #164, #77, #56 ) ;
#128 = PLANE ( 'NONE',  #76 ) ;
#129 = CARTESIAN_POINT ( 'NONE',  ( 4.189777606611760026E-14, 1.009999999999993570, 12.00000000000000000 ) ) ;
#130 = PERSON_AND_ORGANIZATION ( #105, #5 ) ;
#131 = CC_DESIGN_APPROVAL ( #108, ( #61 ) ) ;
#132 = ADVANCED_FACE ( 'NONE', ( #20, #60 ), #6, .T. ) ;
#133 = APPROVAL_ROLE ( '' ) ;
#134 = MECHANICAL_CONTEXT ( 'NONE', #41, 'mechanical' ) ;
#135 = APPROVAL ( #99, 'UNSPECIFIED' ) ;
#136 = UNCERTAINTY_MEASURE_WITH_UNIT (LENGTH_MEASURE( 1.000000000000000082E-05 ), #57, 'distance_accuracy_value', 'NONE');
#137 = DIRECTION ( 'NONE',  ( -3.491481338843133355E-15, 1.224646799147353207E-16, -1.000000000000000000 ) ) ;
#138 = CARTESIAN_POINT ( 'NONE',  ( 1.501336975702547217E-13, 7.123858967643751109E-33, 43.00000000000000000 ) ) ;
#139 = AXIS2_PLACEMENT_3D ( 'NONE', #193, #36, #21 ) ;
#140 = EDGE_LOOP ( 'NONE', ( #68 ) ) ;
#141 = FACE_OUTER_BOUND ( 'NONE', #87, .T. ) ;
#142 = AXIS2_PLACEMENT_3D ( 'NONE', #49, #67, #175 ) ;
#143 = CARTESIAN_POINT ( 'NONE',  ( 1.490862531686017501E-13, 1.249999999999995559, 42.69999999999998863 ) ) ;
#144 = DIRECTION ( 'NONE',  ( -3.491481338843133355E-15, 1.224646799147353207E-16, -1.000000000000000000 ) ) ;
#145 = AXIS2_PLACEMENT_3D ( 'NONE', #176, #124, #101 ) ;
#146 = EDGE_CURVE ( 'NONE', #59, #59, #13, .T. ) ;
#147 = AXIS2_PLACEMENT_3D ( 'NONE', #79, #195, #194 ) ;
#148 = VERTEX_POINT ( 'NONE', #94 ) ;
#149 = PERSON_AND_ORGANIZATION_ROLE ( 'classification_officer' ) ;
#150 = DESIGN_CONTEXT ( 'detailed design', #47, 'design' ) ;
#151 = CALENDAR_DATE ( 2021, 8, 10 ) ;
#152 = APPROVAL_ROLE ( '' ) ;
#153 = PERSON_AND_ORGANIZATION_ROLE ( 'creator' ) ;
#154 = PLANE ( 'NONE',  #120 ) ;
#155 = EDGE_LOOP ( 'NONE', ( #106 ) ) ;
#156 = EDGE_LOOP ( 'NONE', ( #122 ) ) ;
#157 = AXIS2_PLACEMENT_3D ( 'NONE', #207, #53, #208 ) ;
#158 = APPROVAL_PERSON_ORGANIZATION ( #216, #108, #116 ) ;
#159 = CARTESIAN_POINT ( 'NONE',  ( 4.189777606611760026E-14, 7.573786902442321255E-33, 12.00000000000000000 ) ) ;
#160 = CARTESIAN_POINT ( 'NONE',  ( 4.334915760353080865E-14, -1.520483770435620548E-15, 12.41569219381653966 ) ) ;
#161 =( GEOMETRIC_REPRESENTATION_CONTEXT ( 3 ) GLOBAL_UNCERTAINTY_ASSIGNED_CONTEXT ( ( #136 ) ) GLOBAL_UNIT_ASSIGNED_CONTEXT ( ( #57, #126, #178 ) ) REPRESENTATION_CONTEXT ( 'NONE', 'WORKASPACE' ) );
#162 = CARTESIAN_POINT ( 'NONE',  ( 4.189777606611760026E-14, 1.009999999999993570, 12.00000000000000000 ) ) ;
#163 = CARTESIAN_POINT ( 'NONE',  ( 4.334915760353080865E-14, -1.520483770435620548E-15, 12.41569219381653966 ) ) ;
#164 = CARTESIAN_POINT ( 'NONE',  ( 1.501336975702547217E-13, -5.265981236333618470E-15, 43.00000000000000000 ) ) ;
#165 = DIRECTION ( 'NONE',  ( 3.491481338843133355E-15, -1.224646799147353207E-16, 1.000000000000000000 ) ) ;
#166 = COORDINATED_UNIVERSAL_TIME_OFFSET ( 1, 0, .AHEAD. ) ;
#167 = AXIS2_PLACEMENT_3D ( 'NONE', #160, #165, #177 ) ;
#168 = DATE_AND_TIME ( #219, #113 ) ;
#169 = PRODUCT_RELATED_PRODUCT_CATEGORY ( 'detail', '', ( #190 ) ) ;
#170 = DATE_AND_TIME ( #214, #203 ) ;
#171 = CONICAL_SURFACE ( 'NONE', #145, 1.009999999999993348, 1.029744258676649649 ) ;
#172 = LOCAL_TIME ( 7, 15, 55.00000000000000000, #63 ) ;
#173 = CARTESIAN_POINT ( 'NONE',  ( 2.118872574966274209E-15, -7.432004541640603137E-17, 0.6068692252178385926 ) ) ;
#174 = DIRECTION ( 'NONE',  ( -3.491481338843133355E-15, 1.224646799147353207E-16, -1.000000000000000000 ) ) ;
#175 = DIRECTION ( 'NONE',  ( 0.0000000000000000000, 1.000000000000000000, 0.0000000000000000000 ) ) ;
#176 = CARTESIAN_POINT ( 'NONE',  ( 2.118872574966274209E-15, -7.432004541640603137E-17, 0.6068692252178385926 ) ) ;
#177 = DIRECTION ( 'NONE',  ( 0.0000000000000000000, -1.000000000000000000, 0.0000000000000000000 ) ) ;
#178 =( NAMED_UNIT ( * ) SI_UNIT ( $, .STERADIAN. ) SOLID_ANGLE_UNIT ( ) );
#179 = CC_DESIGN_PERSON_AND_ORGANIZATION_ASSIGNMENT ( #130, #149, ( #71 ) ) ;
#180 = CARTESIAN_POINT ( 'NONE',  ( 4.189777606611760026E-14, -1.469576158976823947E-15, 12.00000000000000000 ) ) ;
#181 = CC_DESIGN_SECURITY_CLASSIFICATION ( #71, ( #66 ) ) ;
#182 = DATE_AND_TIME ( #62, #109 ) ;
#183 = MANIFOLD_SOLID_BREP ( 'Corps-Déplacer/Copier1[2]', #102 ) ;
#184 = AXIS2_PLACEMENT_3D ( 'NONE', #180, #213, #210 ) ;
#185 = PERSON_AND_ORGANIZATION_ROLE ( 'design_supplier' ) ;
#186 = EDGE_CURVE ( 'NONE', #78, #78, #218, .T. ) ;
#187 = PERSON_AND_ORGANIZATION ( #105, #5 ) ;
#188 = CC_DESIGN_DATE_AND_TIME_ASSIGNMENT ( #170, #65, ( #71 ) ) ;
#189 = FACE_OUTER_BOUND ( 'NONE', #155, .T. ) ;
#190 = PRODUCT ( '55439', '55439', '', ( #134 ) ) ;
#191 = EDGE_LOOP ( 'NONE', ( #221 ) ) ;
#192 = CC_DESIGN_APPROVAL ( #135, ( #71 ) ) ;
#193 = CARTESIAN_POINT ( 'NONE',  ( 1.490862531686017501E-13, -5.229241832359196822E-15, 42.69999999999998863 ) ) ;
#194 = DIRECTION ( 'NONE',  ( 4.275831445896959482E-31, 1.000000000000000000, 1.224646799147353207E-16 ) ) ;
#195 = DIRECTION ( 'NONE',  ( -3.491481338843133355E-15, 1.224646799147353207E-16, -1.000000000000000000 ) ) ;
#196 = APPLICATION_PROTOCOL_DEFINITION ( 'international standard', 'config_control_design', 1994, #41 ) ;
#197 = EDGE_CURVE ( 'NONE', #148, #148, #103, .T. ) ;
#198 = LOCAL_TIME ( 7, 15, 55.00000000000000000, #15 ) ;
#199 = DIRECTION ( 'NONE',  ( 1.000000000000000000, 0.0000000000000000000, 0.0000000000000000000 ) ) ;
#200 = DATE_TIME_ROLE ( 'creation_date' ) ;
#201 = DATE_AND_TIME ( #16, #172 ) ;
#202 = DIRECTION ( 'NONE',  ( 3.813722662152967456E-31, 1.000000000000000000, 1.073467497510407515E-16 ) ) ;
#203 = LOCAL_TIME ( 7, 15, 55.00000000000000000, #166 ) ;
#204 = ORIENTED_EDGE ( 'NONE', *, *, #146, .F. ) ;
#205 = EDGE_LOOP ( 'NONE', ( #19 ) ) ;
#206 = CC_DESIGN_PERSON_AND_ORGANIZATION_ASSIGNMENT ( #14, #185, ( #66 ) ) ;
#207 = CARTESIAN_POINT ( 'NONE',  ( 4.189777606611760026E-14, -1.469576158976823947E-15, 12.00000000000000000 ) ) ;
#208 = DIRECTION ( 'NONE',  ( 0.0000000000000000000, 1.000000000000000000, 0.0000000000000000000 ) ) ;
#209 = APPROVAL_PERSON_ORGANIZATION ( #40, #135, #152 ) ;
#210 = DIRECTION ( 'NONE',  ( 0.0000000000000000000, 1.000000000000000000, 0.0000000000000000000 ) ) ;
#211 = APPROVAL ( #82, 'UNSPECIFIED' ) ;
#212 = FACE_OUTER_BOUND ( 'NONE', #205, .T. ) ;
#213 = DIRECTION ( 'NONE',  ( -3.491481338843133355E-15, 1.224646799147353207E-16, -1.000000000000000000 ) ) ;
#214 = CALENDAR_DATE ( 2021, 8, 10 ) ;
#215 = SHAPE_DEFINITION_REPRESENTATION ( #50, #51 ) ;
#216 = PERSON_AND_ORGANIZATION ( #105, #5 ) ;
#217 = DATE_AND_TIME ( #151, #198 ) ;
#218 = CIRCLE ( 'NONE', #139, 1.250000000000000666 ) ;
#219 = CALENDAR_DATE ( 2021, 8, 10 ) ;
#220 = CC_DESIGN_DATE_AND_TIME_ASSIGNMENT ( #168, #200, ( #61 ) ) ;
#221 = ORIENTED_EDGE ( 'NONE', *, *, #86, .T. ) ;
#222 = ORIENTED_EDGE ( 'NONE', *, *, #58, .F. ) ;
#223 = DIRECTION ( 'NONE',  ( 3.491481338843133355E-15, -1.224646799147353207E-16, 1.000000000000000000 ) ) ;
ENDSEC;
END-ISO-10303-21;
