ISO-10303-21;
HEADER;
FILE_DESCRIPTION (( 'STEP AP203' ),
    '1' );
FILE_NAME ('55438.step',
    '2021-10-08T05:15:55',
    ( '' ),
    ( '' ),
    'SwSTEP 2.0',
    'SolidWorks 2019',
    '' );
FILE_SCHEMA (( 'CONFIG_CONTROL_DESIGN' ));
ENDSEC;

DATA;
#1 = ORIENTED_EDGE ( 'NONE', *, *, #173, .F. ) ;
#2 = PLANE ( 'NONE',  #169 ) ;
#3 = CC_DESIGN_APPROVAL ( #82, ( #50 ) ) ;
#4 = APPROVAL_DATE_TIME ( #174, #78 ) ;
#5 = EDGE_CURVE ( 'NONE', #134, #134, #57, .T. ) ;
#6 = AXIS2_PLACEMENT_3D ( 'NONE', #18, #100, #101 ) ;
#7 =( NAMED_UNIT ( * ) PLANE_ANGLE_UNIT ( ) SI_UNIT ( $, .RADIAN. ) );
#8 = EDGE_LOOP ( 'NONE', ( #116 ) ) ;
#9 = VERTEX_POINT ( 'NONE', #76 ) ;
#10 = DESIGN_CONTEXT ( 'detailed design', #180, 'design' ) ;
#11 = APPROVAL_PERSON_ORGANIZATION ( #158, #82, #176 ) ;
#12 = ADVANCED_FACE ( 'NONE', ( #221, #122 ), #165, .T. ) ;
#13 = FACE_OUTER_BOUND ( 'NONE', #166, .T. ) ;
#14 = DIRECTION ( 'NONE',  ( -3.491481338843133355E-15, 1.224646799147353207E-16, -1.000000000000000000 ) ) ;
#15 = DIRECTION ( 'NONE',  ( 0.0000000000000000000, 1.000000000000000000, 0.0000000000000000000 ) ) ;
#16 = AXIS2_PLACEMENT_3D ( 'NONE', #190, #31, #80 ) ;
#17 = DIRECTION ( 'NONE',  ( 4.275831445896959482E-31, 1.000000000000000000, 1.224646799147353207E-16 ) ) ;
#18 = CARTESIAN_POINT ( 'NONE',  ( 4.189777606611760026E-14, -1.469576158976823947E-15, 12.00000000000000000 ) ) ;
#19 = CARTESIAN_POINT ( 'NONE',  ( 4.337939471889358369E-14, -1.521544345674345395E-15, 12.42435244785438364 ) ) ;
#20 = ADVANCED_FACE ( 'NONE', ( #28 ), #2, .F. ) ;
#21 = APPROVAL_DATE_TIME ( #72, #82 ) ;
#22 = PERSON_AND_ORGANIZATION_ROLE ( 'creator' ) ;
#23 = MANIFOLD_SOLID_BREP ( 'Corps-Déplacer/Copier1[2]', #63 ) ;
#24 = MECHANICAL_CONTEXT ( 'NONE', #175, 'mechanical' ) ;
#25 = MANIFOLD_SOLID_BREP ( 'Corps-Déplacer/Copier1[1]', #151 ) ;
#26 = CIRCLE ( 'NONE', #6, 1.004999999999995230 ) ;
#27 = DIRECTION ( 'NONE',  ( -3.491481338843133355E-15, 1.224646799147353207E-16, -1.000000000000000000 ) ) ;
#28 = FACE_OUTER_BOUND ( 'NONE', #8, .T. ) ;
#29 = ORIENTED_EDGE ( 'NONE', *, *, #117, .F. ) ;
#30 = EDGE_CURVE ( 'NONE', #203, #203, #71, .T. ) ;
#31 = DIRECTION ( 'NONE',  ( -3.491481338843133355E-15, 1.224646799147353207E-16, -1.000000000000000000 ) ) ;
#32 = LOCAL_TIME ( 7, 15, 55.00000000000000000, #38 ) ;
#33 = DIRECTION ( 'NONE',  ( 4.275831445896959482E-31, 1.000000000000000000, 1.224646799147353454E-16 ) ) ;
#34 = DIRECTION ( 'NONE',  ( 3.491481338843133355E-15, -1.224646799147353207E-16, 1.000000000000000000 ) ) ;
#35 = APPLICATION_PROTOCOL_DEFINITION ( 'international standard', 'config_control_design', 1994, #180 ) ;
#36 = EDGE_CURVE ( 'NONE', #118, #118, #178, .T. ) ;
#37 = AXIS2_PLACEMENT_3D ( 'NONE', #167, #14, #81 ) ;
#38 = COORDINATED_UNIVERSAL_TIME_OFFSET ( 1, 0, .AHEAD. ) ;
#39 = APPLICATION_PROTOCOL_DEFINITION ( 'international standard', 'config_control_design', 1994, #175 ) ;
#40 = DATE_TIME_ROLE ( 'creation_date' ) ;
#41 = EDGE_CURVE ( 'NONE', #69, #69, #96, .T. ) ;
#42 = APPROVAL_PERSON_ORGANIZATION ( #74, #78, #126 ) ;
#43 =( NAMED_UNIT ( * ) SI_UNIT ( $, .STERADIAN. ) SOLID_ANGLE_UNIT ( ) );
#44 = EDGE_LOOP ( 'NONE', ( #200 ) ) ;
#45 = PRODUCT_RELATED_PRODUCT_CATEGORY ( 'detail', '', ( #160 ) ) ;
#46 = CALENDAR_DATE ( 2021, 8, 10 ) ;
#47 = CARTESIAN_POINT ( 'NONE',  ( 1.501336975702547217E-13, 7.123858967643751109E-33, 43.00000000000000000 ) ) ;
#48 = AXIS2_PLACEMENT_3D ( 'NONE', #87, #218, #132 ) ;
#49 = DIRECTION ( 'NONE',  ( 3.832696406740793034E-31, 1.000000000000000000, 1.078808131826379655E-16 ) ) ;
#50 = PRODUCT_DEFINITION ( 'UNKNOWN', '', #138, #10 ) ;
#51 = CARTESIAN_POINT ( 'NONE',  ( 1.490862531686017501E-13, 1.249999999999995559, 42.69999999999998863 ) ) ;
#52 = CARTESIAN_POINT ( 'NONE',  ( 0.0000000000000000000, 0.0000000000000000000, 0.0000000000000000000 ) ) ;
#53 = APPROVAL_PERSON_ORGANIZATION ( #62, #108, #148 ) ;
#54 = FACE_OUTER_BOUND ( 'NONE', #210, .T. ) ;
#55 = COORDINATED_UNIVERSAL_TIME_OFFSET ( 1, 0, .AHEAD. ) ;
#56 = PRODUCT_DEFINITION_SHAPE ( 'NONE', 'NONE',  #50 ) ;
#57 = CIRCLE ( 'NONE', #109, 1.250000000000000666 ) ;
#58 = ORIENTED_EDGE ( 'NONE', *, *, #41, .T. ) ;
#59 = APPROVAL_STATUS ( 'not_yet_approved' ) ;
#60 = ADVANCED_FACE ( 'NONE', ( #155 ), #212, .T. ) ;
#61 = COORDINATED_UNIVERSAL_TIME_OFFSET ( 1, 0, .AHEAD. ) ;
#62 = PERSON_AND_ORGANIZATION ( #79, #164 ) ;
#63 = CLOSED_SHELL ( 'NONE', ( #60, #98, #220 ) ) ;
#64 = SECURITY_CLASSIFICATION ( '', '', #145 ) ;
#65 = EDGE_LOOP ( 'NONE', ( #77 ) ) ;
#66 = FACE_OUTER_BOUND ( 'NONE', #215, .T. ) ;
#67 = DIRECTION ( 'NONE',  ( -4.275831445896958607E-31, -1.000000000000000000, -1.224646799147353207E-16 ) ) ;
#68 = PLANE ( 'NONE',  #95 ) ;
#69 = VERTEX_POINT ( 'NONE', #186 ) ;
#70 = CYLINDRICAL_SURFACE ( 'NONE', #114, 1.004999999999994342 ) ;
#71 = CIRCLE ( 'NONE', #37, 0.9500000000000008438 ) ;
#72 = DATE_AND_TIME ( #144, #143 ) ;
#73 = CALENDAR_DATE ( 2021, 8, 10 ) ;
#74 = PERSON_AND_ORGANIZATION ( #79, #164 ) ;
#75 = PERSON_AND_ORGANIZATION ( #79, #164 ) ;
#76 = CARTESIAN_POINT ( 'NONE',  ( 4.189777606611760026E-14, 1.004999999999993676, 12.00000000000000000 ) ) ;
#77 = ORIENTED_EDGE ( 'NONE', *, *, #36, .T. ) ;
#78 = APPROVAL ( #139, 'UNSPECIFIED' ) ;
#79 = PERSON ( 'UNSPECIFIED', 'UNSPECIFIED', 'UNSPECIFIED', ('UNSPECIFIED'), ('UNSPECIFIED'), ('UNSPECIFIED') ) ;
#80 = DIRECTION ( 'NONE',  ( 0.0000000000000000000, 1.000000000000000000, 0.0000000000000000000 ) ) ;
#81 = DIRECTION ( 'NONE',  ( 0.0000000000000000000, 1.000000000000000000, 0.0000000000000000000 ) ) ;
#82 = APPROVAL ( #194, 'UNSPECIFIED' ) ;
#83 = CC_DESIGN_APPROVAL ( #108, ( #64 ) ) ;
#84 = ORIENTED_EDGE ( 'NONE', *, *, #5, .F. ) ;
#85 = FACE_BOUND ( 'NONE', #172, .T. ) ;
#86 = CYLINDRICAL_SURFACE ( 'NONE', #184, 1.249999999999998446 ) ;
#87 = CARTESIAN_POINT ( 'NONE',  ( 4.337939471889358369E-14, -1.521544345674345395E-15, 12.42435244785438364 ) ) ;
#88 = CONICAL_SURFACE ( 'NONE', #48, 1.249999999999996447, 0.5235987755982923764 ) ;
#89 = ORIENTED_EDGE ( 'NONE', *, *, #5, .T. ) ;
#90 = ORIENTED_EDGE ( 'NONE', *, *, #30, .T. ) ;
#91 = DATE_AND_TIME ( #105, #32 ) ;
#92 = AXIS2_PLACEMENT_3D ( 'NONE', #191, #152, #136 ) ;
#93 = ADVANCED_BREP_SHAPE_REPRESENTATION ( '55438', ( #25, #23, #189 ), #147 ) ;
#94 = ADVANCED_FACE ( 'NONE', ( #13 ), #68, .F. ) ;
#95 = AXIS2_PLACEMENT_3D ( 'NONE', #150, #34, #103 ) ;
#96 = CIRCLE ( 'NONE', #16, 1.004999999999995230 ) ;
#97 = DIRECTION ( 'NONE',  ( 0.0000000000000000000, 1.000000000000000000, 0.0000000000000000000 ) ) ;
#98 = ADVANCED_FACE ( 'NONE', ( #66, #222 ), #70, .T. ) ;
#99 = DIRECTION ( 'NONE',  ( -3.491481338843133355E-15, 1.224646799147353207E-16, -1.000000000000000000 ) ) ;
#100 = DIRECTION ( 'NONE',  ( -3.491481338843133355E-15, 1.224646799147353207E-16, -1.000000000000000000 ) ) ;
#101 = DIRECTION ( 'NONE',  ( 0.0000000000000000000, 1.000000000000000000, 0.0000000000000000000 ) ) ;
#102 = CC_DESIGN_PERSON_AND_ORGANIZATION_ASSIGNMENT ( #142, #214, ( #64 ) ) ;
#103 = DIRECTION ( 'NONE',  ( -4.275831445896958607E-31, -1.000000000000000000, -1.224646799147353207E-16 ) ) ;
#104 = LOCAL_TIME ( 7, 15, 55.00000000000000000, #159 ) ;
#105 = CALENDAR_DATE ( 2021, 8, 10 ) ;
#106 = PERSON_AND_ORGANIZATION ( #79, #164 ) ;
#107 = DIRECTION ( 'NONE',  ( 1.000000000000000000, 0.0000000000000000000, 0.0000000000000000000 ) ) ;
#108 = APPROVAL ( #59, 'UNSPECIFIED' ) ;
#109 = AXIS2_PLACEMENT_3D ( 'NONE', #128, #179, #15 ) ;
#110 = CIRCLE ( 'NONE', #216, 1.249999999999996447 ) ;
#111 = UNCERTAINTY_MEASURE_WITH_UNIT (LENGTH_MEASURE( 1.000000000000000082E-05 ), #127, 'distance_accuracy_value', 'NONE');
#112 = CC_DESIGN_PERSON_AND_ORGANIZATION_ASSIGNMENT ( #75, #156, ( #160 ) ) ;
#113 = EDGE_LOOP ( 'NONE', ( #84 ) ) ;
#114 = AXIS2_PLACEMENT_3D ( 'NONE', #52, #171, #33 ) ;
#115 = PLANE ( 'NONE',  #130 ) ;
#116 = ORIENTED_EDGE ( 'NONE', *, *, #30, .F. ) ;
#117 = EDGE_CURVE ( 'NONE', #9, #9, #26, .T. ) ;
#118 = VERTEX_POINT ( 'NONE', #223 ) ;
#119 = CARTESIAN_POINT ( 'NONE',  ( 4.189777606611760026E-14, 7.536292907875775909E-33, 12.00000000000000000 ) ) ;
#120 = CARTESIAN_POINT ( 'NONE',  ( 2.108383106773372320E-15, -7.395212439949315561E-17, 0.6038649221227009312 ) ) ;
#121 = CC_DESIGN_SECURITY_CLASSIFICATION ( #64, ( #138 ) ) ;
#122 = FACE_BOUND ( 'NONE', #217, .T. ) ;
#123 = DATE_TIME_ROLE ( 'classification_date' ) ;
#124 = DIRECTION ( 'NONE',  ( 0.0000000000000000000, 0.0000000000000000000, 1.000000000000000000 ) ) ;
#125 = CC_DESIGN_DATE_AND_TIME_ASSIGNMENT ( #91, #40, ( #50 ) ) ;
#126 = APPROVAL_ROLE ( '' ) ;
#127 =( LENGTH_UNIT ( ) NAMED_UNIT ( * ) SI_UNIT ( .MILLI., .METRE. ) );
#128 = CARTESIAN_POINT ( 'NONE',  ( 1.490862531686017501E-13, -5.229241832359196822E-15, 42.69999999999998863 ) ) ;
#129 = APPROVAL_DATE_TIME ( #183, #108 ) ;
#130 = AXIS2_PLACEMENT_3D ( 'NONE', #119, #185, #67 ) ;
#131 = COORDINATED_UNIVERSAL_TIME_OFFSET ( 1, 0, .AHEAD. ) ;
#132 = DIRECTION ( 'NONE',  ( 0.0000000000000000000, -1.000000000000000000, 0.0000000000000000000 ) ) ;
#133 = AXIS2_PLACEMENT_3D ( 'NONE', #168, #137, #97 ) ;
#134 = VERTEX_POINT ( 'NONE', #51 ) ;
#135 = FACE_OUTER_BOUND ( 'NONE', #141, .T. ) ;
#136 = DIRECTION ( 'NONE',  ( -3.832696406740793034E-31, -1.000000000000000000, -1.078808131826379655E-16 ) ) ;
#137 = DIRECTION ( 'NONE',  ( -3.491481338843133355E-15, 1.224646799147353207E-16, -1.000000000000000000 ) ) ;
#138 = PRODUCT_DEFINITION_FORMATION_WITH_SPECIFIED_SOURCE ( 'ANY', '', #160, .NOT_KNOWN. ) ;
#139 = APPROVAL_STATUS ( 'not_yet_approved' ) ;
#140 = ADVANCED_FACE ( 'NONE', ( #188, #135 ), #86, .T. ) ;
#141 = EDGE_LOOP ( 'NONE', ( #89 ) ) ;
#142 = PERSON_AND_ORGANIZATION ( #79, #164 ) ;
#143 = LOCAL_TIME ( 7, 15, 55.00000000000000000, #61 ) ;
#144 = CALENDAR_DATE ( 2021, 8, 10 ) ;
#145 = SECURITY_CLASSIFICATION_LEVEL ( 'unclassified' ) ;
#146 = EDGE_LOOP ( 'NONE', ( #1 ) ) ;
#147 =( GEOMETRIC_REPRESENTATION_CONTEXT ( 3 ) GLOBAL_UNCERTAINTY_ASSIGNED_CONTEXT ( ( #111 ) ) GLOBAL_UNIT_ASSIGNED_CONTEXT ( ( #127, #7, #43 ) ) REPRESENTATION_CONTEXT ( 'NONE', 'WORKASPACE' ) );
#148 = APPROVAL_ROLE ( '' ) ;
#149 = CC_DESIGN_DATE_AND_TIME_ASSIGNMENT ( #213, #123, ( #64 ) ) ;
#150 = CARTESIAN_POINT ( 'NONE',  ( 4.189777606611760026E-14, 7.536292907875775909E-33, 12.00000000000000000 ) ) ;
#151 = CLOSED_SHELL ( 'NONE', ( #94, #204, #140, #12, #20 ) ) ;
#152 = DIRECTION ( 'NONE',  ( 3.491481338843133355E-15, -1.224646799147353207E-16, 1.000000000000000000 ) ) ;
#153 = ORIENTED_EDGE ( 'NONE', *, *, #36, .F. ) ;
#154 = CARTESIAN_POINT ( 'NONE',  ( 1.501336975702547217E-13, 0.9499999999999955147, 43.00000000000000000 ) ) ;
#155 = FACE_OUTER_BOUND ( 'NONE', #65, .T. ) ;
#156 = PERSON_AND_ORGANIZATION_ROLE ( 'design_owner' ) ;
#157 = CC_DESIGN_PERSON_AND_ORGANIZATION_ASSIGNMENT ( #177, #163, ( #138 ) ) ;
#158 = PERSON_AND_ORGANIZATION ( #79, #164 ) ;
#159 = COORDINATED_UNIVERSAL_TIME_OFFSET ( 1, 0, .AHEAD. ) ;
#160 = PRODUCT ( '55438', '55438', '', ( #24 ) ) ;
#161 = PERSON_AND_ORGANIZATION_ROLE ( 'creator' ) ;
#162 = LOCAL_TIME ( 7, 15, 55.00000000000000000, #131 ) ;
#163 = PERSON_AND_ORGANIZATION_ROLE ( 'design_supplier' ) ;
#164 = ORGANIZATION ( 'UNSPECIFIED', 'UNSPECIFIED', '' ) ;
#165 = CONICAL_SURFACE ( 'NONE', #133, 0.9500000000000008438, 0.7853981633974336241 ) ;
#166 = EDGE_LOOP ( 'NONE', ( #198 ) ) ;
#167 = CARTESIAN_POINT ( 'NONE',  ( 1.501336975702547217E-13, -5.265981236333618470E-15, 43.00000000000000000 ) ) ;
#168 = CARTESIAN_POINT ( 'NONE',  ( 1.501336975702547217E-13, -5.265981236333618470E-15, 43.00000000000000000 ) ) ;
#169 = AXIS2_PLACEMENT_3D ( 'NONE', #47, #27, #170 ) ;
#170 = DIRECTION ( 'NONE',  ( 4.275831445896958607E-31, 1.000000000000000000, 1.224646799147353207E-16 ) ) ;
#171 = DIRECTION ( 'NONE',  ( -3.491481338843133355E-15, 1.224646799147353207E-16, -1.000000000000000000 ) ) ;
#172 = EDGE_LOOP ( 'NONE', ( #29 ) ) ;
#173 = EDGE_CURVE ( 'NONE', #211, #211, #110, .T. ) ;
#174 = DATE_AND_TIME ( #209, #104 ) ;
#175 = APPLICATION_CONTEXT ( 'configuration controlled 3d designs of mechanical parts and assemblies' ) ;
#176 = APPROVAL_ROLE ( '' ) ;
#177 = PERSON_AND_ORGANIZATION ( #79, #164 ) ;
#178 = CIRCLE ( 'NONE', #182, 1.004999999999993454 ) ;
#179 = DIRECTION ( 'NONE',  ( -3.491481338843133355E-15, 1.224646799147353207E-16, -1.000000000000000000 ) ) ;
#180 = APPLICATION_CONTEXT ( 'configuration controlled 3d designs of mechanical parts and assemblies' ) ;
#181 = ORIENTED_EDGE ( 'NONE', *, *, #173, .T. ) ;
#182 = AXIS2_PLACEMENT_3D ( 'NONE', #120, #99, #49 ) ;
#183 = DATE_AND_TIME ( #46, #162 ) ;
#184 = AXIS2_PLACEMENT_3D ( 'NONE', #208, #219, #17 ) ;
#185 = DIRECTION ( 'NONE',  ( 3.491481338843133355E-15, -1.224646799147353207E-16, 1.000000000000000000 ) ) ;
#186 = CARTESIAN_POINT ( 'NONE',  ( 4.189777606611760026E-14, 1.004999999999993676, 12.00000000000000000 ) ) ;
#187 = CC_DESIGN_PERSON_AND_ORGANIZATION_ASSIGNMENT ( #196, #161, ( #138 ) ) ;
#188 = FACE_OUTER_BOUND ( 'NONE', #146, .T. ) ;
#189 = AXIS2_PLACEMENT_3D ( 'NONE', #197, #124, #107 ) ;
#190 = CARTESIAN_POINT ( 'NONE',  ( 4.189777606611760026E-14, -1.469576158976823947E-15, 12.00000000000000000 ) ) ;
#191 = CARTESIAN_POINT ( 'NONE',  ( 2.108383106773372320E-15, -7.395212439949315561E-17, 0.6038649221227009312 ) ) ;
#192 = CC_DESIGN_PERSON_AND_ORGANIZATION_ASSIGNMENT ( #106, #22, ( #50 ) ) ;
#193 = LOCAL_TIME ( 7, 15, 55.00000000000000000, #55 ) ;
#194 = APPROVAL_STATUS ( 'not_yet_approved' ) ;
#195 = CARTESIAN_POINT ( 'NONE',  ( 4.337939471889358369E-14, 1.249999999999994893, 12.42435244785438364 ) ) ;
#196 = PERSON_AND_ORGANIZATION ( #79, #164 ) ;
#197 = CARTESIAN_POINT ( 'NONE',  ( 0.0000000000000000000, 0.0000000000000000000, 0.0000000000000000000 ) ) ;
#198 = ORIENTED_EDGE ( 'NONE', *, *, #117, .T. ) ;
#199 = SHAPE_DEFINITION_REPRESENTATION ( #56, #93 ) ;
#200 = ORIENTED_EDGE ( 'NONE', *, *, #41, .F. ) ;
#201 = FACE_OUTER_BOUND ( 'NONE', #44, .T. ) ;
#202 = CC_DESIGN_APPROVAL ( #78, ( #138 ) ) ;
#203 = VERTEX_POINT ( 'NONE', #154 ) ;
#204 = ADVANCED_FACE ( 'NONE', ( #85, #54 ), #88, .T. ) ;
#205 = DIRECTION ( 'NONE',  ( -3.491481338843133355E-15, 1.224646799147353207E-16, -1.000000000000000000 ) ) ;
#206 = DIRECTION ( 'NONE',  ( 0.0000000000000000000, 1.000000000000000000, 0.0000000000000000000 ) ) ;
#207 = EDGE_LOOP ( 'NONE', ( #58 ) ) ;
#208 = CARTESIAN_POINT ( 'NONE',  ( 0.0000000000000000000, 0.0000000000000000000, 0.0000000000000000000 ) ) ;
#209 = CALENDAR_DATE ( 2021, 8, 10 ) ;
#210 = EDGE_LOOP ( 'NONE', ( #181 ) ) ;
#211 = VERTEX_POINT ( 'NONE', #195 ) ;
#212 = CONICAL_SURFACE ( 'NONE', #92, 1.004999999999993454, 1.029744258676649649 ) ;
#213 = DATE_AND_TIME ( #73, #193 ) ;
#214 = PERSON_AND_ORGANIZATION_ROLE ( 'classification_officer' ) ;
#215 = EDGE_LOOP ( 'NONE', ( #153 ) ) ;
#216 = AXIS2_PLACEMENT_3D ( 'NONE', #19, #205, #206 ) ;
#217 = EDGE_LOOP ( 'NONE', ( #90 ) ) ;
#218 = DIRECTION ( 'NONE',  ( 3.491481338843133355E-15, -1.224646799147353207E-16, 1.000000000000000000 ) ) ;
#219 = DIRECTION ( 'NONE',  ( -3.491481338843133355E-15, 1.224646799147353207E-16, -1.000000000000000000 ) ) ;
#220 = ADVANCED_FACE ( 'NONE', ( #201 ), #115, .T. ) ;
#221 = FACE_OUTER_BOUND ( 'NONE', #113, .T. ) ;
#222 = FACE_OUTER_BOUND ( 'NONE', #207, .T. ) ;
#223 = CARTESIAN_POINT ( 'NONE',  ( 2.108383106773372714E-15, 1.004999999999993454, 0.6038649221227010422 ) ) ;
ENDSEC;
END-ISO-10303-21;
