ISO-10303-21;
HEADER;
FILE_DESCRIPTION (( 'STEP AP203' ),
    '1' );
FILE_NAME ('55437.step',
    '2021-10-08T05:15:54',
    ( '' ),
    ( '' ),
    'SwSTEP 2.0',
    'SolidWorks 2019',
    '' );
FILE_SCHEMA (( 'CONFIG_CONTROL_DESIGN' ));
ENDSEC;

DATA;
#1 = CARTESIAN_POINT ( 'NONE',  ( 4.340963183425635874E-14, -1.522604920913070439E-15, 12.43301270189222940 ) ) ;
#2 = AXIS2_PLACEMENT_3D ( 'NONE', #179, #205, #115 ) ;
#3 = AXIS2_PLACEMENT_3D ( 'NONE', #45, #30, #74 ) ;
#4 = CARTESIAN_POINT ( 'NONE',  ( 1.501336975702547217E-13, -5.265981236333618470E-15, 43.00000000000000000 ) ) ;
#5 = DIRECTION ( 'NONE',  ( 3.491481338843133355E-15, -1.224646799147353207E-16, 1.000000000000000000 ) ) ;
#6 = EDGE_CURVE ( 'NONE', #41, #41, #109, .T. ) ;
#7 = PRODUCT_RELATED_PRODUCT_CATEGORY ( 'detail', '', ( #89 ) ) ;
#8 = APPROVAL_PERSON_ORGANIZATION ( #200, #113, #32 ) ;
#9 = PRODUCT_DEFINITION ( 'UNKNOWN', '', #104, #126 ) ;
#10 = DIRECTION ( 'NONE',  ( 3.851859888774496667E-31, 1.000000000000000000, 1.084202172485511460E-16 ) ) ;
#11 = COORDINATED_UNIVERSAL_TIME_OFFSET ( 1, 0, .AHEAD. ) ;
#12 = CC_DESIGN_APPROVAL ( #120, ( #9 ) ) ;
#13 = FACE_OUTER_BOUND ( 'NONE', #206, .T. ) ;
#14 = EDGE_CURVE ( 'NONE', #72, #72, #35, .T. ) ;
#15 = FACE_OUTER_BOUND ( 'NONE', #99, .T. ) ;
#16 = DIRECTION ( 'NONE',  ( 0.0000000000000000000, -1.000000000000000000, 0.0000000000000000000 ) ) ;
#17 = AXIS2_PLACEMENT_3D ( 'NONE', #101, #52, #189 ) ;
#18 = PLANE ( 'NONE',  #156 ) ;
#19 = MANIFOLD_SOLID_BREP ( 'Corps-Déplacer/Copier1[1]', #214 ) ;
#20 = AXIS2_PLACEMENT_3D ( 'NONE', #4, #61, #143 ) ;
#21 = ADVANCED_FACE ( 'NONE', ( #202 ), #64, .T. ) ;
#22 = VERTEX_POINT ( 'NONE', #90 ) ;
#23 = APPROVAL_PERSON_ORGANIZATION ( #183, #28, #216 ) ;
#24 = CYLINDRICAL_SURFACE ( 'NONE', #118, 1.249999999999998890 ) ;
#25 = DATE_AND_TIME ( #105, #135 ) ;
#26 = DIRECTION ( 'NONE',  ( 3.491481338843133355E-15, -1.224646799147353207E-16, 1.000000000000000000 ) ) ;
#27 = SECURITY_CLASSIFICATION ( '', '', #60 ) ;
#28 = APPROVAL ( #181, 'UNSPECIFIED' ) ;
#29 = PERSON_AND_ORGANIZATION_ROLE ( 'design_supplier' ) ;
#30 = DIRECTION ( 'NONE',  ( 3.491481338843133355E-15, -1.224646799147353207E-16, 1.000000000000000000 ) ) ;
#31 = DIRECTION ( 'NONE',  ( -3.851859888774496667E-31, -1.000000000000000000, -1.084202172485511460E-16 ) ) ;
#32 = APPROVAL_ROLE ( '' ) ;
#33 = APPROVAL_ROLE ( '' ) ;
#34 = ADVANCED_FACE ( 'NONE', ( #168, #13 ), #222, .T. ) ;
#35 = CIRCLE ( 'NONE', #121, 0.9999999999999935607 ) ;
#36 = FACE_BOUND ( 'NONE', #47, .T. ) ;
#37 = ORIENTED_EDGE ( 'NONE', *, *, #188, .T. ) ;
#38 = CARTESIAN_POINT ( 'NONE',  ( 4.189777606611760026E-14, -1.469576158976823947E-15, 12.00000000000000000 ) ) ;
#39 = AXIS2_PLACEMENT_3D ( 'NONE', #80, #204, #186 ) ;
#40 = VERTEX_POINT ( 'NONE', #81 ) ;
#41 = VERTEX_POINT ( 'NONE', #161 ) ;
#42 = DATE_TIME_ROLE ( 'classification_date' ) ;
#43 = AXIS2_PLACEMENT_3D ( 'NONE', #129, #169, #141 ) ;
#44 = PERSON_AND_ORGANIZATION ( #112, #97 ) ;
#45 = CARTESIAN_POINT ( 'NONE',  ( 4.189777606611760026E-14, 7.498798913309223722E-33, 12.00000000000000000 ) ) ;
#46 = FACE_OUTER_BOUND ( 'NONE', #152, .T. ) ;
#47 = EDGE_LOOP ( 'NONE', ( #154 ) ) ;
#48 = EDGE_LOOP ( 'NONE', ( #212 ) ) ;
#49 = AXIS2_PLACEMENT_3D ( 'NONE', #1, #132, #185 ) ;
#50 = APPROVAL_DATE_TIME ( #85, #120 ) ;
#51 = CC_DESIGN_PERSON_AND_ORGANIZATION_ASSIGNMENT ( #123, #174, ( #9 ) ) ;
#52 = DIRECTION ( 'NONE',  ( -3.491481338843133355E-15, 1.224646799147353207E-16, -1.000000000000000000 ) ) ;
#53 = DIRECTION ( 'NONE',  ( -3.491481338843133355E-15, 1.224646799147353207E-16, -1.000000000000000000 ) ) ;
#54 = UNCERTAINTY_MEASURE_WITH_UNIT (LENGTH_MEASURE( 1.000000000000000082E-05 ), #63, 'distance_accuracy_value', 'NONE');
#55 = DATE_TIME_ROLE ( 'creation_date' ) ;
#56 = ORIENTED_EDGE ( 'NONE', *, *, #175, .T. ) ;
#57 = DIRECTION ( 'NONE',  ( 4.275831445896959482E-31, 1.000000000000000000, 1.224646799147353454E-16 ) ) ;
#58 = CONICAL_SURFACE ( 'NONE', #20, 0.9500000000000008438, 0.7853981633974336241 ) ;
#59 = CARTESIAN_POINT ( 'NONE',  ( 4.189777606611760026E-14, 0.9999999999999931166, 12.00000000000000000 ) ) ;
#60 = SECURITY_CLASSIFICATION_LEVEL ( 'unclassified' ) ;
#61 = DIRECTION ( 'NONE',  ( -3.491481338843133355E-15, 1.224646799147353207E-16, -1.000000000000000000 ) ) ;
#62 = PERSON_AND_ORGANIZATION ( #112, #97 ) ;
#63 =( LENGTH_UNIT ( ) NAMED_UNIT ( * ) SI_UNIT ( .MILLI., .METRE. ) );
#64 = CONICAL_SURFACE ( 'NONE', #73, 0.9999999999999935607, 1.029744258676649649 ) ;
#65 = ORIENTED_EDGE ( 'NONE', *, *, #14, .F. ) ;
#66 = EDGE_LOOP ( 'NONE', ( #65 ) ) ;
#67 = CC_DESIGN_PERSON_AND_ORGANIZATION_ASSIGNMENT ( #192, #84, ( #89 ) ) ;
#68 = ORIENTED_EDGE ( 'NONE', *, *, #6, .F. ) ;
#69 = CARTESIAN_POINT ( 'NONE',  ( 4.340963183425635874E-14, 1.249999999999995559, 12.43301270189222940 ) ) ;
#70 = DIRECTION ( 'NONE',  ( -3.491481338843133355E-15, 1.224646799147353207E-16, -1.000000000000000000 ) ) ;
#71 = CALENDAR_DATE ( 2021, 8, 10 ) ;
#72 = VERTEX_POINT ( 'NONE', #134 ) ;
#73 = AXIS2_PLACEMENT_3D ( 'NONE', #111, #184, #31 ) ;
#74 = DIRECTION ( 'NONE',  ( -4.275831445896958607E-31, -1.000000000000000000, -1.224646799147353207E-16 ) ) ;
#75 = EDGE_LOOP ( 'NONE', ( #37 ) ) ;
#76 = PERSON_AND_ORGANIZATION_ROLE ( 'classification_officer' ) ;
#77 = FACE_OUTER_BOUND ( 'NONE', #211, .T. ) ;
#78 = CIRCLE ( 'NONE', #49, 1.249999999999996891 ) ;
#79 = COORDINATED_UNIVERSAL_TIME_OFFSET ( 1, 0, .AHEAD. ) ;
#80 = CARTESIAN_POINT ( 'NONE',  ( 0.0000000000000000000, 0.0000000000000000000, 0.0000000000000000000 ) ) ;
#81 = CARTESIAN_POINT ( 'NONE',  ( 4.189777606611760026E-14, 0.9999999999999931166, 12.00000000000000000 ) ) ;
#82 = LOCAL_TIME ( 7, 15, 54.00000000000000000, #110 ) ;
#83 = DIRECTION ( 'NONE',  ( 0.0000000000000000000, 0.0000000000000000000, 1.000000000000000000 ) ) ;
#84 = PERSON_AND_ORGANIZATION_ROLE ( 'design_owner' ) ;
#85 = DATE_AND_TIME ( #71, #145 ) ;
#86 = CIRCLE ( 'NONE', #17, 0.9999999999999945599 ) ;
#87 = CARTESIAN_POINT ( 'NONE',  ( 1.501336975702547217E-13, -5.265981236333618470E-15, 43.00000000000000000 ) ) ;
#88 = VERTEX_POINT ( 'NONE', #69 ) ;
#89 = PRODUCT ( '55437', '55437', '', ( #151 ) ) ;
#90 = CARTESIAN_POINT ( 'NONE',  ( 1.490862531686017501E-13, 1.249999999999995559, 42.69999999999998863 ) ) ;
#91 = ORIENTED_EDGE ( 'NONE', *, *, #175, .F. ) ;
#92 = APPROVAL_PERSON_ORGANIZATION ( #62, #120, #33 ) ;
#93 = ADVANCED_BREP_SHAPE_REPRESENTATION ( '55437', ( #19, #96, #159 ), #173 ) ;
#94 = CARTESIAN_POINT ( 'NONE',  ( 0.0000000000000000000, 0.0000000000000000000, 0.0000000000000000000 ) ) ;
#95 = CARTESIAN_POINT ( 'NONE',  ( 2.097893638580469642E-15, -7.358420338258023055E-17, 0.6008606190275630476 ) ) ;
#96 = MANIFOLD_SOLID_BREP ( 'Corps-Déplacer/Copier1[2]', #153 ) ;
#97 = ORGANIZATION ( 'UNSPECIFIED', 'UNSPECIFIED', '' ) ;
#98 = FACE_OUTER_BOUND ( 'NONE', #75, .T. ) ;
#99 = EDGE_LOOP ( 'NONE', ( #137 ) ) ;
#100 =( NAMED_UNIT ( * ) SI_UNIT ( $, .STERADIAN. ) SOLID_ANGLE_UNIT ( ) );
#101 = CARTESIAN_POINT ( 'NONE',  ( 4.189777606611760026E-14, -1.469576158976823947E-15, 12.00000000000000000 ) ) ;
#102 = CC_DESIGN_APPROVAL ( #28, ( #104 ) ) ;
#103 = DIRECTION ( 'NONE',  ( 0.0000000000000000000, 1.000000000000000000, 0.0000000000000000000 ) ) ;
#104 = PRODUCT_DEFINITION_FORMATION_WITH_SPECIFIED_SOURCE ( 'ANY', '', #89, .NOT_KNOWN. ) ;
#105 = CALENDAR_DATE ( 2021, 8, 10 ) ;
#106 = APPLICATION_PROTOCOL_DEFINITION ( 'international standard', 'config_control_design', 1994, #215 ) ;
#107 = APPLICATION_PROTOCOL_DEFINITION ( 'international standard', 'config_control_design', 1994, #172 ) ;
#108 = PERSON_AND_ORGANIZATION ( #112, #97 ) ;
#109 = CIRCLE ( 'NONE', #142, 0.9500000000000008438 ) ;
#110 = COORDINATED_UNIVERSAL_TIME_OFFSET ( 1, 0, .AHEAD. ) ;
#111 = CARTESIAN_POINT ( 'NONE',  ( 2.097893638580469642E-15, -7.358420338258023055E-17, 0.6008606190275630476 ) ) ;
#112 = PERSON ( 'UNSPECIFIED', 'UNSPECIFIED', 'UNSPECIFIED', ('UNSPECIFIED'), ('UNSPECIFIED'), ('UNSPECIFIED') ) ;
#113 = APPROVAL ( #133, 'UNSPECIFIED' ) ;
#114 = AXIS2_PLACEMENT_3D ( 'NONE', #38, #53, #117 ) ;
#115 = DIRECTION ( 'NONE',  ( 4.275831445896958607E-31, 1.000000000000000000, 1.224646799147353207E-16 ) ) ;
#116 = DIRECTION ( 'NONE',  ( -4.275831445896958607E-31, -1.000000000000000000, -1.224646799147353207E-16 ) ) ;
#117 = DIRECTION ( 'NONE',  ( 0.0000000000000000000, 1.000000000000000000, 0.0000000000000000000 ) ) ;
#118 = AXIS2_PLACEMENT_3D ( 'NONE', #94, #217, #57 ) ;
#119 = ADVANCED_FACE ( 'NONE', ( #36, #98 ), #194, .T. ) ;
#120 = APPROVAL ( #165, 'UNSPECIFIED' ) ;
#121 = AXIS2_PLACEMENT_3D ( 'NONE', #95, #130, #10 ) ;
#122 = VERTEX_POINT ( 'NONE', #59 ) ;
#123 = PERSON_AND_ORGANIZATION ( #112, #97 ) ;
#124 = PRODUCT_DEFINITION_SHAPE ( 'NONE', 'NONE',  #9 ) ;
#125 = CALENDAR_DATE ( 2021, 8, 10 ) ;
#126 = DESIGN_CONTEXT ( 'detailed design', #172, 'design' ) ;
#127 = DATE_AND_TIME ( #125, #82 ) ;
#128 = PLANE ( 'NONE',  #2 ) ;
#129 = CARTESIAN_POINT ( 'NONE',  ( 1.490862531686017501E-13, -5.229241832359196822E-15, 42.69999999999998863 ) ) ;
#130 = DIRECTION ( 'NONE',  ( -3.491481338843133355E-15, 1.224646799147353207E-16, -1.000000000000000000 ) ) ;
#131 = PERSON_AND_ORGANIZATION ( #112, #97 ) ;
#132 = DIRECTION ( 'NONE',  ( -3.491481338843133355E-15, 1.224646799147353207E-16, -1.000000000000000000 ) ) ;
#133 = APPROVAL_STATUS ( 'not_yet_approved' ) ;
#134 = CARTESIAN_POINT ( 'NONE',  ( 2.097893638580470037E-15, 0.9999999999999935607, 0.6008606190275631587 ) ) ;
#135 = LOCAL_TIME ( 7, 15, 54.00000000000000000, #11 ) ;
#136 = FACE_OUTER_BOUND ( 'NONE', #48, .T. ) ;
#137 = ORIENTED_EDGE ( 'NONE', *, *, #167, .T. ) ;
#138 = ADVANCED_FACE ( 'NONE', ( #15 ), #18, .F. ) ;
#139 = EDGE_LOOP ( 'NONE', ( #158 ) ) ;
#140 = CIRCLE ( 'NONE', #43, 1.250000000000000666 ) ;
#141 = DIRECTION ( 'NONE',  ( 0.0000000000000000000, 1.000000000000000000, 0.0000000000000000000 ) ) ;
#142 = AXIS2_PLACEMENT_3D ( 'NONE', #87, #70, #103 ) ;
#143 = DIRECTION ( 'NONE',  ( 0.0000000000000000000, 1.000000000000000000, 0.0000000000000000000 ) ) ;
#144 = APPROVAL_DATE_TIME ( #127, #28 ) ;
#145 = LOCAL_TIME ( 7, 15, 54.00000000000000000, #79 ) ;
#146 = EDGE_LOOP ( 'NONE', ( #68 ) ) ;
#147 = CALENDAR_DATE ( 2021, 8, 10 ) ;
#148 = ADVANCED_FACE ( 'NONE', ( #77 ), #199, .T. ) ;
#149 = FACE_OUTER_BOUND ( 'NONE', #146, .T. ) ;
#150 = CARTESIAN_POINT ( 'NONE',  ( 4.189777606611760026E-14, 7.498798913309223722E-33, 12.00000000000000000 ) ) ;
#151 = MECHANICAL_CONTEXT ( 'NONE', #215, 'mechanical' ) ;
#152 = EDGE_LOOP ( 'NONE', ( #190 ) ) ;
#153 = CLOSED_SHELL ( 'NONE', ( #21, #34, #148 ) ) ;
#154 = ORIENTED_EDGE ( 'NONE', *, *, #167, .F. ) ;
#155 = ORIENTED_EDGE ( 'NONE', *, *, #208, .T. ) ;
#156 = AXIS2_PLACEMENT_3D ( 'NONE', #150, #5, #116 ) ;
#157 = CC_DESIGN_PERSON_AND_ORGANIZATION_ASSIGNMENT ( #131, #29, ( #104 ) ) ;
#158 = ORIENTED_EDGE ( 'NONE', *, *, #6, .T. ) ;
#159 = AXIS2_PLACEMENT_3D ( 'NONE', #210, #83, #218 ) ;
#160 = ADVANCED_FACE ( 'NONE', ( #149 ), #128, .F. ) ;
#161 = CARTESIAN_POINT ( 'NONE',  ( 1.501336975702547217E-13, 0.9499999999999955147, 43.00000000000000000 ) ) ;
#162 = CC_DESIGN_DATE_AND_TIME_ASSIGNMENT ( #166, #42, ( #27 ) ) ;
#163 = APPROVAL_DATE_TIME ( #25, #113 ) ;
#164 = CC_DESIGN_SECURITY_CLASSIFICATION ( #27, ( #104 ) ) ;
#165 = APPROVAL_STATUS ( 'not_yet_approved' ) ;
#166 = DATE_AND_TIME ( #219, #193 ) ;
#167 = EDGE_CURVE ( 'NONE', #40, #40, #176, .T. ) ;
#168 = FACE_OUTER_BOUND ( 'NONE', #66, .T. ) ;
#169 = DIRECTION ( 'NONE',  ( -3.491481338843133355E-15, 1.224646799147353207E-16, -1.000000000000000000 ) ) ;
#170 = FACE_BOUND ( 'NONE', #139, .T. ) ;
#171 = ORIENTED_EDGE ( 'NONE', *, *, #14, .T. ) ;
#172 = APPLICATION_CONTEXT ( 'configuration controlled 3d designs of mechanical parts and assemblies' ) ;
#173 =( GEOMETRIC_REPRESENTATION_CONTEXT ( 3 ) GLOBAL_UNCERTAINTY_ASSIGNED_CONTEXT ( ( #54 ) ) GLOBAL_UNIT_ASSIGNED_CONTEXT ( ( #63, #187, #100 ) ) REPRESENTATION_CONTEXT ( 'NONE', 'WORKASPACE' ) );
#174 = PERSON_AND_ORGANIZATION_ROLE ( 'creator' ) ;
#175 = EDGE_CURVE ( 'NONE', #122, #122, #86, .T. ) ;
#176 = CIRCLE ( 'NONE', #114, 0.9999999999999945599 ) ;
#177 = PERSON_AND_ORGANIZATION_ROLE ( 'creator' ) ;
#178 = CARTESIAN_POINT ( 'NONE',  ( 4.340963183425635874E-14, -1.522604920913070439E-15, 12.43301270189222940 ) ) ;
#179 = CARTESIAN_POINT ( 'NONE',  ( 1.501336975702547217E-13, 7.123858967643751109E-33, 43.00000000000000000 ) ) ;
#180 = SHAPE_DEFINITION_REPRESENTATION ( #124, #93 ) ;
#181 = APPROVAL_STATUS ( 'not_yet_approved' ) ;
#182 = CC_DESIGN_APPROVAL ( #113, ( #27 ) ) ;
#183 = PERSON_AND_ORGANIZATION ( #112, #97 ) ;
#184 = DIRECTION ( 'NONE',  ( 3.491481338843133355E-15, -1.224646799147353207E-16, 1.000000000000000000 ) ) ;
#185 = DIRECTION ( 'NONE',  ( 0.0000000000000000000, 1.000000000000000000, 0.0000000000000000000 ) ) ;
#186 = DIRECTION ( 'NONE',  ( 4.275831445896957731E-31, 1.000000000000000000, 1.224646799147352961E-16 ) ) ;
#187 =( NAMED_UNIT ( * ) PLANE_ANGLE_UNIT ( ) SI_UNIT ( $, .RADIAN. ) );
#188 = EDGE_CURVE ( 'NONE', #88, #88, #78, .T. ) ;
#189 = DIRECTION ( 'NONE',  ( 0.0000000000000000000, 1.000000000000000000, 0.0000000000000000000 ) ) ;
#190 = ORIENTED_EDGE ( 'NONE', *, *, #188, .F. ) ;
#191 = AXIS2_PLACEMENT_3D ( 'NONE', #178, #26, #16 ) ;
#192 = PERSON_AND_ORGANIZATION ( #112, #97 ) ;
#193 = LOCAL_TIME ( 7, 15, 54.00000000000000000, #196 ) ;
#194 = CONICAL_SURFACE ( 'NONE', #191, 1.249999999999996891, 0.5235987755982940417 ) ;
#195 = ADVANCED_FACE ( 'NONE', ( #136, #170 ), #58, .T. ) ;
#196 = COORDINATED_UNIVERSAL_TIME_OFFSET ( 1, 0, .AHEAD. ) ;
#197 = EDGE_LOOP ( 'NONE', ( #155 ) ) ;
#198 = FACE_OUTER_BOUND ( 'NONE', #197, .T. ) ;
#199 = PLANE ( 'NONE',  #3 ) ;
#200 = PERSON_AND_ORGANIZATION ( #112, #97 ) ;
#201 = DATE_AND_TIME ( #147, #207 ) ;
#202 = FACE_OUTER_BOUND ( 'NONE', #209, .T. ) ;
#203 = CC_DESIGN_DATE_AND_TIME_ASSIGNMENT ( #201, #55, ( #9 ) ) ;
#204 = DIRECTION ( 'NONE',  ( -3.491481338843133355E-15, 1.224646799147353207E-16, -1.000000000000000000 ) ) ;
#205 = DIRECTION ( 'NONE',  ( -3.491481338843133355E-15, 1.224646799147353207E-16, -1.000000000000000000 ) ) ;
#206 = EDGE_LOOP ( 'NONE', ( #56 ) ) ;
#207 = LOCAL_TIME ( 7, 15, 54.00000000000000000, #221 ) ;
#208 = EDGE_CURVE ( 'NONE', #22, #22, #140, .T. ) ;
#209 = EDGE_LOOP ( 'NONE', ( #171 ) ) ;
#210 = CARTESIAN_POINT ( 'NONE',  ( 0.0000000000000000000, 0.0000000000000000000, 0.0000000000000000000 ) ) ;
#211 = EDGE_LOOP ( 'NONE', ( #91 ) ) ;
#212 = ORIENTED_EDGE ( 'NONE', *, *, #208, .F. ) ;
#213 = CC_DESIGN_PERSON_AND_ORGANIZATION_ASSIGNMENT ( #44, #177, ( #104 ) ) ;
#214 = CLOSED_SHELL ( 'NONE', ( #138, #119, #223, #195, #160 ) ) ;
#215 = APPLICATION_CONTEXT ( 'configuration controlled 3d designs of mechanical parts and assemblies' ) ;
#216 = APPROVAL_ROLE ( '' ) ;
#217 = DIRECTION ( 'NONE',  ( -3.491481338843133355E-15, 1.224646799147353207E-16, -1.000000000000000000 ) ) ;
#218 = DIRECTION ( 'NONE',  ( 1.000000000000000000, 0.0000000000000000000, 0.0000000000000000000 ) ) ;
#219 = CALENDAR_DATE ( 2021, 8, 10 ) ;
#220 = CC_DESIGN_PERSON_AND_ORGANIZATION_ASSIGNMENT ( #108, #76, ( #27 ) ) ;
#221 = COORDINATED_UNIVERSAL_TIME_OFFSET ( 1, 0, .AHEAD. ) ;
#222 = CYLINDRICAL_SURFACE ( 'NONE', #39, 0.9999999999999940048 ) ;
#223 = ADVANCED_FACE ( 'NONE', ( #46, #198 ), #24, .T. ) ;
ENDSEC;
END-ISO-10303-21;
