ISO-10303-21;
HEADER;
FILE_DESCRIPTION (( 'STEP AP203' ),
    '1' );
FILE_NAME ('55436.step',
    '2021-10-08T05:15:53',
    ( '' ),
    ( '' ),
    'SwSTEP 2.0',
    'SolidWorks 2019',
    '' );
FILE_SCHEMA (( 'CONFIG_CONTROL_DESIGN' ));
ENDSEC;

DATA;
#1 = FACE_BOUND ( 'NONE', #172, .T. ) ;
#2 = CC_DESIGN_APPROVAL ( #101, ( #157 ) ) ;
#3 = ORIENTED_EDGE ( 'NONE', *, *, #133, .T. ) ;
#4 = EDGE_CURVE ( 'NONE', #132, #132, #145, .T. ) ;
#5 = LOCAL_TIME ( 7, 15, 53.00000000000000000, #57 ) ;
#6 = CARTESIAN_POINT ( 'NONE',  ( 4.189777606611760026E-14, 0.9749999999999940936, 12.00000000000000000 ) ) ;
#7 = PERSON_AND_ORGANIZATION ( #93, #33 ) ;
#8 = CARTESIAN_POINT ( 'NONE',  ( 4.189777606611760026E-14, 7.311328940476499732E-33, 12.00000000000000000 ) ) ;
#9 = APPROVAL_STATUS ( 'not_yet_approved' ) ;
#10 = EDGE_LOOP ( 'NONE', ( #102 ) ) ;
#11 = EDGE_LOOP ( 'NONE', ( #180 ) ) ;
#12 = AXIS2_PLACEMENT_3D ( 'NONE', #151, #207, #52 ) ;
#13 = EDGE_LOOP ( 'NONE', ( #97 ) ) ;
#14 = DIRECTION ( 'NONE',  ( 4.275831445896957731E-31, 1.000000000000000000, 1.224646799147353454E-16 ) ) ;
#15 = CARTESIAN_POINT ( 'NONE',  ( 4.189777606611760026E-14, 7.311328940476499732E-33, 12.00000000000000000 ) ) ;
#16 = DIRECTION ( 'NONE',  ( 4.275831445896958607E-31, 1.000000000000000000, 1.224646799147353207E-16 ) ) ;
#17 = DIRECTION ( 'NONE',  ( -3.491481338843133355E-15, 1.224646799147353207E-16, -1.000000000000000000 ) ) ;
#18 = FACE_OUTER_BOUND ( 'NONE', #181, .T. ) ;
#19 = PRODUCT_DEFINITION_SHAPE ( 'NONE', 'NONE',  #157 ) ;
#20 = AXIS2_PLACEMENT_3D ( 'NONE', #15, #223, #83 ) ;
#21 = APPROVAL ( #120, 'UNSPECIFIED' ) ;
#22 = CALENDAR_DATE ( 2021, 8, 10 ) ;
#23 =( NAMED_UNIT ( * ) SI_UNIT ( $, .STERADIAN. ) SOLID_ANGLE_UNIT ( ) );
#24 =( GEOMETRIC_REPRESENTATION_CONTEXT ( 3 ) GLOBAL_UNCERTAINTY_ASSIGNED_CONTEXT ( ( #60 ) ) GLOBAL_UNIT_ASSIGNED_CONTEXT ( ( #130, #64, #23 ) ) REPRESENTATION_CONTEXT ( 'NONE', 'WORKASPACE' ) );
#25 = PERSON_AND_ORGANIZATION ( #93, #33 ) ;
#26 = VERTEX_POINT ( 'NONE', #217 ) ;
#27 = CARTESIAN_POINT ( 'NONE',  ( 1.326762908760390423E-13, 5.999039130647367482E-33, 38.00000000000000000 ) ) ;
#28 = AXIS2_PLACEMENT_3D ( 'NONE', #8, #115, #204 ) ;
#29 = DIRECTION ( 'NONE',  ( -3.491481338843133355E-15, 1.224646799147353207E-16, -1.000000000000000000 ) ) ;
#30 = PLANE ( 'NONE',  #20 ) ;
#31 = APPROVAL_DATE_TIME ( #39, #101 ) ;
#32 = FACE_OUTER_BOUND ( 'NONE', #153, .T. ) ;
#33 = ORGANIZATION ( 'UNSPECIFIED', 'UNSPECIFIED', '' ) ;
#34 = EDGE_CURVE ( 'NONE', #142, #142, #160, .T. ) ;
#35 = ORIENTED_EDGE ( 'NONE', *, *, #34, .F. ) ;
#36 = FACE_BOUND ( 'NONE', #10, .T. ) ;
#37 = APPROVAL_PERSON_ORGANIZATION ( #25, #53, #90 ) ;
#38 = VERTEX_POINT ( 'NONE', #49 ) ;
#39 = DATE_AND_TIME ( #219, #69 ) ;
#40 = APPROVAL_DATE_TIME ( #175, #53 ) ;
#41 = DATE_AND_TIME ( #106, #5 ) ;
#42 = CARTESIAN_POINT ( 'NONE',  ( 2.045446297615957043E-15, -7.174459829801569150E-17, 0.5858391035518736301 ) ) ;
#43 = EDGE_CURVE ( 'NONE', #38, #38, #117, .T. ) ;
#44 = AXIS2_PLACEMENT_3D ( 'NONE', #62, #146, #166 ) ;
#45 = ORIENTED_EDGE ( 'NONE', *, *, #34, .T. ) ;
#46 = CARTESIAN_POINT ( 'NONE',  ( 4.204896164293148810E-14, -1.474879035170448774E-15, 12.04330127018922703 ) ) ;
#47 = ADVANCED_FACE ( 'NONE', ( #91 ), #50, .T. ) ;
#48 = DIRECTION ( 'NONE',  ( 0.0000000000000000000, 0.0000000000000000000, 1.000000000000000000 ) ) ;
#49 = CARTESIAN_POINT ( 'NONE',  ( 4.204896164293148810E-14, 0.9999999999999954481, 12.04330127018922703 ) ) ;
#50 = CONICAL_SURFACE ( 'NONE', #200, 0.9749999999999935385, 1.029744258676649871 ) ;
#51 = EDGE_LOOP ( 'NONE', ( #109 ) ) ;
#52 = DIRECTION ( 'NONE',  ( 0.0000000000000000000, 1.000000000000000000, 0.0000000000000000000 ) ) ;
#53 = APPROVAL ( #141, 'UNSPECIFIED' ) ;
#54 = PERSON_AND_ORGANIZATION ( #93, #33 ) ;
#55 = FACE_OUTER_BOUND ( 'NONE', #188, .T. ) ;
#56 = CARTESIAN_POINT ( 'NONE',  ( 0.0000000000000000000, 0.0000000000000000000, 0.0000000000000000000 ) ) ;
#57 = COORDINATED_UNIVERSAL_TIME_OFFSET ( 1, 0, .AHEAD. ) ;
#58 = CC_DESIGN_APPROVAL ( #53, ( #73 ) ) ;
#59 = SHAPE_DEFINITION_REPRESENTATION ( #19, #96 ) ;
#60 = UNCERTAINTY_MEASURE_WITH_UNIT (LENGTH_MEASURE( 1.000000000000000082E-05 ), #130, 'distance_accuracy_value', 'NONE');
#61 = EDGE_LOOP ( 'NONE', ( #72 ) ) ;
#62 = CARTESIAN_POINT ( 'NONE',  ( 1.326762908760390423E-13, -4.653657836759941941E-15, 38.00000000000000000 ) ) ;
#63 = CARTESIAN_POINT ( 'NONE',  ( 2.045446297615957438E-15, 0.9749999999999934275, 0.5858391035518737411 ) ) ;
#64 =( NAMED_UNIT ( * ) PLANE_ANGLE_UNIT ( ) SI_UNIT ( $, .RADIAN. ) );
#65 = ORIENTED_EDGE ( 'NONE', *, *, #43, .F. ) ;
#66 = CARTESIAN_POINT ( 'NONE',  ( 1.326762908760390423E-13, 0.7999999999999962697, 38.00000000000000000 ) ) ;
#67 = CARTESIAN_POINT ( 'NONE',  ( 0.0000000000000000000, 0.0000000000000000000, 0.0000000000000000000 ) ) ;
#68 = COORDINATED_UNIVERSAL_TIME_OFFSET ( 1, 0, .AHEAD. ) ;
#69 = LOCAL_TIME ( 7, 15, 53.00000000000000000, #86 ) ;
#70 = EDGE_LOOP ( 'NONE', ( #158 ) ) ;
#71 = AXIS2_PLACEMENT_3D ( 'NONE', #203, #100, #185 ) ;
#72 = ORIENTED_EDGE ( 'NONE', *, *, #216, .T. ) ;
#73 = SECURITY_CLASSIFICATION ( '', '', #107 ) ;
#74 = PERSON_AND_ORGANIZATION_ROLE ( 'creator' ) ;
#75 = AXIS2_PLACEMENT_3D ( 'NONE', #211, #155, #212 ) ;
#76 = APPLICATION_CONTEXT ( 'configuration controlled 3d designs of mechanical parts and assemblies' ) ;
#77 = PRODUCT_DEFINITION_FORMATION_WITH_SPECIFIED_SOURCE ( 'ANY', '', #168, .NOT_KNOWN. ) ;
#78 = DIRECTION ( 'NONE',  ( 0.0000000000000000000, -1.000000000000000000, 0.0000000000000000000 ) ) ;
#79 = CARTESIAN_POINT ( 'NONE',  ( 1.319779946082704535E-13, -4.629164900776995227E-15, 37.79999999999999716 ) ) ;
#80 = AXIS2_PLACEMENT_3D ( 'NONE', #124, #125, #165 ) ;
#81 = ADVANCED_FACE ( 'NONE', ( #98, #126 ), #201, .T. ) ;
#82 = PERSON_AND_ORGANIZATION ( #93, #33 ) ;
#83 = DIRECTION ( 'NONE',  ( -4.275831445896958607E-31, -1.000000000000000000, -1.224646799147353207E-16 ) ) ;
#84 = AXIS2_PLACEMENT_3D ( 'NONE', #67, #48, #209 ) ;
#85 = MANIFOLD_SOLID_BREP ( 'Corps-Déplacer/Copier1[2]', #221 ) ;
#86 = COORDINATED_UNIVERSAL_TIME_OFFSET ( 1, 0, .AHEAD. ) ;
#87 = PERSON_AND_ORGANIZATION ( #93, #33 ) ;
#88 = DATE_TIME_ROLE ( 'creation_date' ) ;
#89 = AXIS2_PLACEMENT_3D ( 'NONE', #184, #129, #167 ) ;
#90 = APPROVAL_ROLE ( '' ) ;
#91 = FACE_OUTER_BOUND ( 'NONE', #61, .T. ) ;
#92 = AXIS2_PLACEMENT_3D ( 'NONE', #79, #29, #147 ) ;
#93 = PERSON ( 'UNSPECIFIED', 'UNSPECIFIED', 'UNSPECIFIED', ('UNSPECIFIED'), ('UNSPECIFIED'), ('UNSPECIFIED') ) ;
#94 = CARTESIAN_POINT ( 'NONE',  ( 1.319779946082704535E-13, 0.9999999999999963363, 37.79999999999999716 ) ) ;
#95 = CC_DESIGN_PERSON_AND_ORGANIZATION_ASSIGNMENT ( #82, #74, ( #157 ) ) ;
#96 = ADVANCED_BREP_SHAPE_REPRESENTATION ( '55436', ( #161, #85, #84 ), #24 ) ;
#97 = ORIENTED_EDGE ( 'NONE', *, *, #43, .T. ) ;
#98 = FACE_OUTER_BOUND ( 'NONE', #144, .T. ) ;
#99 = CIRCLE ( 'NONE', #80, 0.9749999999999935385 ) ;
#100 = DIRECTION ( 'NONE',  ( -3.491481338843133355E-15, 1.224646799147353207E-16, -1.000000000000000000 ) ) ;
#101 = APPROVAL ( #9, 'UNSPECIFIED' ) ;
#102 = ORIENTED_EDGE ( 'NONE', *, *, #4, .F. ) ;
#103 = CYLINDRICAL_SURFACE ( 'NONE', #192, 0.9749999999999945377 ) ;
#104 = CC_DESIGN_PERSON_AND_ORGANIZATION_ASSIGNMENT ( #139, #136, ( #77 ) ) ;
#105 = DATE_AND_TIME ( #121, #164 ) ;
#106 = CALENDAR_DATE ( 2021, 8, 10 ) ;
#107 = SECURITY_CLASSIFICATION_LEVEL ( 'unclassified' ) ;
#108 = DESIGN_CONTEXT ( 'detailed design', #135, 'design' ) ;
#109 = ORIENTED_EDGE ( 'NONE', *, *, #190, .T. ) ;
#110 = ORIENTED_EDGE ( 'NONE', *, *, #216, .F. ) ;
#111 = CALENDAR_DATE ( 2021, 8, 10 ) ;
#112 = CARTESIAN_POINT ( 'NONE',  ( 0.0000000000000000000, 0.0000000000000000000, 0.0000000000000000000 ) ) ;
#113 = CC_DESIGN_SECURITY_CLASSIFICATION ( #73, ( #77 ) ) ;
#114 = FACE_OUTER_BOUND ( 'NONE', #123, .T. ) ;
#115 = DIRECTION ( 'NONE',  ( 3.491481338843133355E-15, -1.224646799147353207E-16, 1.000000000000000000 ) ) ;
#116 = DIRECTION ( 'NONE',  ( 4.275831445896958607E-31, 1.000000000000000000, 1.224646799147353207E-16 ) ) ;
#117 = CIRCLE ( 'NONE', #12, 0.9999999999999970024 ) ;
#118 = COORDINATED_UNIVERSAL_TIME_OFFSET ( 1, 0, .AHEAD. ) ;
#119 = CC_DESIGN_DATE_AND_TIME_ASSIGNMENT ( #138, #88, ( #157 ) ) ;
#120 = APPROVAL_STATUS ( 'not_yet_approved' ) ;
#121 = CALENDAR_DATE ( 2021, 8, 10 ) ;
#122 = ADVANCED_FACE ( 'NONE', ( #182 ), #30, .F. ) ;
#123 = EDGE_LOOP ( 'NONE', ( #110 ) ) ;
#124 = CARTESIAN_POINT ( 'NONE',  ( 2.045446297615957043E-15, -7.174459829801569150E-17, 0.5858391035518736301 ) ) ;
#125 = DIRECTION ( 'NONE',  ( -3.491481338843133355E-15, 1.224646799147353207E-16, -1.000000000000000000 ) ) ;
#126 = FACE_OUTER_BOUND ( 'NONE', #51, .T. ) ;
#127 = AXIS2_PLACEMENT_3D ( 'NONE', #27, #17, #16 ) ;
#128 = CIRCLE ( 'NONE', #92, 1.000000000000000888 ) ;
#129 = DIRECTION ( 'NONE',  ( -3.491481338843133355E-15, 1.224646799147353207E-16, -1.000000000000000000 ) ) ;
#130 =( LENGTH_UNIT ( ) NAMED_UNIT ( * ) SI_UNIT ( .MILLI., .METRE. ) );
#131 = CC_DESIGN_APPROVAL ( #21, ( #77 ) ) ;
#132 = VERTEX_POINT ( 'NONE', #6 ) ;
#133 = EDGE_CURVE ( 'NONE', #26, #26, #186, .T. ) ;
#134 = APPROVAL_PERSON_ORGANIZATION ( #54, #21, #174 ) ;
#135 = APPLICATION_CONTEXT ( 'configuration controlled 3d designs of mechanical parts and assemblies' ) ;
#136 = PERSON_AND_ORGANIZATION_ROLE ( 'creator' ) ;
#137 = ADVANCED_FACE ( 'NONE', ( #32 ), #178, .F. ) ;
#138 = DATE_AND_TIME ( #111, #189 ) ;
#139 = PERSON_AND_ORGANIZATION ( #93, #33 ) ;
#140 = FACE_OUTER_BOUND ( 'NONE', #70, .T. ) ;
#141 = APPROVAL_STATUS ( 'not_yet_approved' ) ;
#142 = VERTEX_POINT ( 'NONE', #66 ) ;
#143 = ADVANCED_FACE ( 'NONE', ( #18 ), #148, .T. ) ;
#144 = EDGE_LOOP ( 'NONE', ( #65 ) ) ;
#145 = CIRCLE ( 'NONE', #75, 0.9749999999999956479 ) ;
#146 = DIRECTION ( 'NONE',  ( -3.491481338843133355E-15, 1.224646799147353207E-16, -1.000000000000000000 ) ) ;
#147 = DIRECTION ( 'NONE',  ( 0.0000000000000000000, 1.000000000000000000, 0.0000000000000000000 ) ) ;
#148 = PLANE ( 'NONE',  #28 ) ;
#149 = APPROVAL_PERSON_ORGANIZATION ( #87, #101, #208 ) ;
#150 = PERSON_AND_ORGANIZATION ( #93, #33 ) ;
#151 = CARTESIAN_POINT ( 'NONE',  ( 4.204896164293148810E-14, -1.474879035170448774E-15, 12.04330127018922703 ) ) ;
#152 = CC_DESIGN_DATE_AND_TIME_ASSIGNMENT ( #41, #215, ( #73 ) ) ;
#153 = EDGE_LOOP ( 'NONE', ( #35 ) ) ;
#154 = APPROVAL_DATE_TIME ( #105, #21 ) ;
#155 = DIRECTION ( 'NONE',  ( -3.491481338843133355E-15, 1.224646799147353207E-16, -1.000000000000000000 ) ) ;
#156 = CONICAL_SURFACE ( 'NONE', #89, 0.8000000000000009326, 0.7853981633974512766 ) ;
#157 = PRODUCT_DEFINITION ( 'UNKNOWN', '', #77, #108 ) ;
#158 = ORIENTED_EDGE ( 'NONE', *, *, #190, .F. ) ;
#159 = VERTEX_POINT ( 'NONE', #94 ) ;
#160 = CIRCLE ( 'NONE', #44, 0.8000000000000009326 ) ;
#161 = MANIFOLD_SOLID_BREP ( 'Corps-Déplacer/Copier1[1]', #210 ) ;
#162 = ADVANCED_FACE ( 'NONE', ( #114, #55 ), #103, .T. ) ;
#163 = DIRECTION ( 'NONE',  ( -3.491481338843133355E-15, 1.224646799147353207E-16, -1.000000000000000000 ) ) ;
#164 = LOCAL_TIME ( 7, 15, 53.00000000000000000, #222 ) ;
#165 = DIRECTION ( 'NONE',  ( 3.950625526948202361E-31, 1.000000000000000000, 1.112002228190268347E-16 ) ) ;
#166 = DIRECTION ( 'NONE',  ( 0.0000000000000000000, 1.000000000000000000, 0.0000000000000000000 ) ) ;
#167 = DIRECTION ( 'NONE',  ( 0.0000000000000000000, 1.000000000000000000, 0.0000000000000000000 ) ) ;
#168 = PRODUCT ( '55436', '55436', '', ( #213 ) ) ;
#169 = CC_DESIGN_PERSON_AND_ORGANIZATION_ASSIGNMENT ( #150, #171, ( #168 ) ) ;
#170 = CONICAL_SURFACE ( 'NONE', #218, 0.9999999999999970024, 0.5235987755982822733 ) ;
#171 = PERSON_AND_ORGANIZATION_ROLE ( 'design_owner' ) ;
#172 = EDGE_LOOP ( 'NONE', ( #45 ) ) ;
#173 = APPLICATION_PROTOCOL_DEFINITION ( 'international standard', 'config_control_design', 1994, #76 ) ;
#174 = APPROVAL_ROLE ( '' ) ;
#175 = DATE_AND_TIME ( #22, #195 ) ;
#176 = ADVANCED_FACE ( 'NONE', ( #36, #199 ), #170, .T. ) ;
#177 = PERSON_AND_ORGANIZATION_ROLE ( 'classification_officer' ) ;
#178 = PLANE ( 'NONE',  #127 ) ;
#179 = DIRECTION ( 'NONE',  ( 3.491481338843133355E-15, -1.224646799147353207E-16, 1.000000000000000000 ) ) ;
#180 = ORIENTED_EDGE ( 'NONE', *, *, #4, .T. ) ;
#181 = EDGE_LOOP ( 'NONE', ( #196 ) ) ;
#182 = FACE_OUTER_BOUND ( 'NONE', #11, .T. ) ;
#183 = CC_DESIGN_PERSON_AND_ORGANIZATION_ASSIGNMENT ( #7, #214, ( #77 ) ) ;
#184 = CARTESIAN_POINT ( 'NONE',  ( 1.326762908760390423E-13, -4.653657836759941941E-15, 38.00000000000000000 ) ) ;
#185 = DIRECTION ( 'NONE',  ( 0.0000000000000000000, 1.000000000000000000, 0.0000000000000000000 ) ) ;
#186 = CIRCLE ( 'NONE', #71, 0.9749999999999956479 ) ;
#187 = DIRECTION ( 'NONE',  ( -3.491481338843133355E-15, 1.224646799147353207E-16, -1.000000000000000000 ) ) ;
#188 = EDGE_LOOP ( 'NONE', ( #3 ) ) ;
#189 = LOCAL_TIME ( 7, 15, 53.00000000000000000, #68 ) ;
#190 = EDGE_CURVE ( 'NONE', #159, #159, #128, .T. ) ;
#191 = APPLICATION_PROTOCOL_DEFINITION ( 'international standard', 'config_control_design', 1994, #135 ) ;
#192 = AXIS2_PLACEMENT_3D ( 'NONE', #56, #187, #116 ) ;
#193 = PRODUCT_RELATED_PRODUCT_CATEGORY ( 'detail', '', ( #168 ) ) ;
#194 = PERSON_AND_ORGANIZATION ( #93, #33 ) ;
#195 = LOCAL_TIME ( 7, 15, 53.00000000000000000, #118 ) ;
#196 = ORIENTED_EDGE ( 'NONE', *, *, #133, .F. ) ;
#197 = DIRECTION ( 'NONE',  ( 3.491481338843133355E-15, -1.224646799147353207E-16, 1.000000000000000000 ) ) ;
#198 = VERTEX_POINT ( 'NONE', #63 ) ;
#199 = FACE_OUTER_BOUND ( 'NONE', #13, .T. ) ;
#200 = AXIS2_PLACEMENT_3D ( 'NONE', #42, #197, #205 ) ;
#201 = CYLINDRICAL_SURFACE ( 'NONE', #206, 0.9999999999999988898 ) ;
#202 = CC_DESIGN_PERSON_AND_ORGANIZATION_ASSIGNMENT ( #194, #177, ( #73 ) ) ;
#203 = CARTESIAN_POINT ( 'NONE',  ( 4.189777606611760026E-14, -1.469576158976823947E-15, 12.00000000000000000 ) ) ;
#204 = DIRECTION ( 'NONE',  ( -4.275831445896958607E-31, -1.000000000000000000, -1.224646799147353207E-16 ) ) ;
#205 = DIRECTION ( 'NONE',  ( -3.950625526948202361E-31, -1.000000000000000000, -1.112002228190268347E-16 ) ) ;
#206 = AXIS2_PLACEMENT_3D ( 'NONE', #112, #163, #14 ) ;
#207 = DIRECTION ( 'NONE',  ( -3.491481338843133355E-15, 1.224646799147353207E-16, -1.000000000000000000 ) ) ;
#208 = APPROVAL_ROLE ( '' ) ;
#209 = DIRECTION ( 'NONE',  ( 1.000000000000000000, 0.0000000000000000000, 0.0000000000000000000 ) ) ;
#210 = CLOSED_SHELL ( 'NONE', ( #122, #176, #81, #220, #137 ) ) ;
#211 = CARTESIAN_POINT ( 'NONE',  ( 4.189777606611760026E-14, -1.469576158976823947E-15, 12.00000000000000000 ) ) ;
#212 = DIRECTION ( 'NONE',  ( 0.0000000000000000000, 1.000000000000000000, 0.0000000000000000000 ) ) ;
#213 = MECHANICAL_CONTEXT ( 'NONE', #76, 'mechanical' ) ;
#214 = PERSON_AND_ORGANIZATION_ROLE ( 'design_supplier' ) ;
#215 = DATE_TIME_ROLE ( 'classification_date' ) ;
#216 = EDGE_CURVE ( 'NONE', #198, #198, #99, .T. ) ;
#217 = CARTESIAN_POINT ( 'NONE',  ( 4.189777606611760026E-14, 0.9749999999999940936, 12.00000000000000000 ) ) ;
#218 = AXIS2_PLACEMENT_3D ( 'NONE', #46, #179, #78 ) ;
#219 = CALENDAR_DATE ( 2021, 8, 10 ) ;
#220 = ADVANCED_FACE ( 'NONE', ( #140, #1 ), #156, .T. ) ;
#221 = CLOSED_SHELL ( 'NONE', ( #47, #162, #143 ) ) ;
#222 = COORDINATED_UNIVERSAL_TIME_OFFSET ( 1, 0, .AHEAD. ) ;
#223 = DIRECTION ( 'NONE',  ( 3.491481338843133355E-15, -1.224646799147353207E-16, 1.000000000000000000 ) ) ;
ENDSEC;
END-ISO-10303-21;
