ISO-10303-21;
HEADER;
FILE_DESCRIPTION (( 'STEP AP203' ),
    '1' );
FILE_NAME ('55434.step',
    '2021-10-08T05:15:52',
    ( '' ),
    ( '' ),
    'SwSTEP 2.0',
    'SolidWorks 2019',
    '' );
FILE_SCHEMA (( 'CONFIG_CONTROL_DESIGN' ));
ENDSEC;

DATA;
#1 = CC_DESIGN_APPROVAL ( #74, ( #151 ) ) ;
#2 = FACE_OUTER_BOUND ( 'NONE', #83, .T. ) ;
#3 =( LENGTH_UNIT ( ) NAMED_UNIT ( * ) SI_UNIT ( .MILLI., .METRE. ) );
#4 = DIRECTION ( 'NONE',  ( -3.491481338843133355E-15, 1.224646799147353207E-16, -1.000000000000000000 ) ) ;
#5 = DATE_AND_TIME ( #7, #133 ) ;
#6 = AXIS2_PLACEMENT_3D ( 'NONE', #148, #207, #100 ) ;
#7 = CALENDAR_DATE ( 2021, 8, 10 ) ;
#8 = PERSON_AND_ORGANIZATION ( #35, #32 ) ;
#9 = SECURITY_CLASSIFICATION ( '', '', #25 ) ;
#10 = APPROVAL_DATE_TIME ( #166, #191 ) ;
#11 = MANIFOLD_SOLID_BREP ( 'Corps-Déplacer/Copier1[1]', #26 ) ;
#12 = EDGE_LOOP ( 'NONE', ( #149 ) ) ;
#13 = AXIS2_PLACEMENT_3D ( 'NONE', #89, #4, #105 ) ;
#14 = CARTESIAN_POINT ( 'NONE',  ( 0.0000000000000000000, 0.0000000000000000000, 0.0000000000000000000 ) ) ;
#15 = FACE_OUTER_BOUND ( 'NONE', #122, .T. ) ;
#16 = CARTESIAN_POINT ( 'NONE',  ( 4.223038433510813836E-14, -1.481242486602798448E-15, 12.09526279441629448 ) ) ;
#17 = CONICAL_SURFACE ( 'NONE', #129, 0.9999999999999970024, 0.5235987755982891567 ) ;
#18 = ORIENTED_EDGE ( 'NONE', *, *, #104, .T. ) ;
#19 = DIRECTION ( 'NONE',  ( 0.0000000000000000000, 1.000000000000000000, 0.0000000000000000000 ) ) ;
#20 = PERSON_AND_ORGANIZATION_ROLE ( 'design_owner' ) ;
#21 = CARTESIAN_POINT ( 'NONE',  ( 0.0000000000000000000, 0.0000000000000000000, 0.0000000000000000000 ) ) ;
#22 = VERTEX_POINT ( 'NONE', #110 ) ;
#23 = PRODUCT_DEFINITION_SHAPE ( 'NONE', 'NONE',  #151 ) ;
#24 = SHAPE_DEFINITION_REPRESENTATION ( #23, #97 ) ;
#25 = SECURITY_CLASSIFICATION_LEVEL ( 'unclassified' ) ;
#26 = CLOSED_SHELL ( 'NONE', ( #31, #141, #153, #208, #91 ) ) ;
#27 = APPLICATION_CONTEXT ( 'configuration controlled 3d designs of mechanical parts and assemblies' ) ;
#28 = DIRECTION ( 'NONE',  ( 0.0000000000000000000, 1.000000000000000000, 0.0000000000000000000 ) ) ;
#29 = EDGE_CURVE ( 'NONE', #178, #178, #152, .T. ) ;
#30 = ORIENTED_EDGE ( 'NONE', *, *, #215, .F. ) ;
#31 = ADVANCED_FACE ( 'NONE', ( #99 ), #220, .F. ) ;
#32 = ORGANIZATION ( 'UNSPECIFIED', 'UNSPECIFIED', '' ) ;
#33 = APPLICATION_CONTEXT ( 'configuration controlled 3d designs of mechanical parts and assemblies' ) ;
#34 = DIRECTION ( 'NONE',  ( -3.491481338843133355E-15, 1.224646799147353207E-16, -1.000000000000000000 ) ) ;
#35 = PERSON ( 'UNSPECIFIED', 'UNSPECIFIED', 'UNSPECIFIED', ('UNSPECIFIED'), ('UNSPECIFIED'), ('UNSPECIFIED') ) ;
#36 = DIRECTION ( 'NONE',  ( 3.491481338843133355E-15, -1.224646799147353207E-16, 1.000000000000000000 ) ) ;
#37 = DIRECTION ( 'NONE',  ( 3.491481338843133355E-15, -1.224646799147353207E-16, 1.000000000000000000 ) ) ;
#38 = CARTESIAN_POINT ( 'NONE',  ( 1.982509488458543345E-15, 0.9449999999999935119, 0.5678132849810468841 ) ) ;
#39 = ADVANCED_FACE ( 'NONE', ( #154, #15 ), #221, .T. ) ;
#40 = FACE_OUTER_BOUND ( 'NONE', #53, .T. ) ;
#41 = CC_DESIGN_PERSON_AND_ORGANIZATION_ASSIGNMENT ( #60, #181, ( #216 ) ) ;
#42 = CIRCLE ( 'NONE', #57, 0.9449999999999936229 ) ;
#43 = VERTEX_POINT ( 'NONE', #111 ) ;
#44 = DATE_TIME_ROLE ( 'creation_date' ) ;
#45 = EDGE_CURVE ( 'NONE', #67, #67, #92, .T. ) ;
#46 = CC_DESIGN_DATE_AND_TIME_ASSIGNMENT ( #5, #201, ( #9 ) ) ;
#47 = APPROVAL_ROLE ( '' ) ;
#48 = CLOSED_SHELL ( 'NONE', ( #206, #39, #116 ) ) ;
#49 = EDGE_LOOP ( 'NONE', ( #204 ) ) ;
#50 = ORIENTED_EDGE ( 'NONE', *, *, #215, .T. ) ;
#51 = CIRCLE ( 'NONE', #162, 0.9449999999999950662 ) ;
#52 = EDGE_LOOP ( 'NONE', ( #150 ) ) ;
#53 = EDGE_LOOP ( 'NONE', ( #18 ) ) ;
#54 = AXIS2_PLACEMENT_3D ( 'NONE', #16, #34, #28 ) ;
#55 = DIRECTION ( 'NONE',  ( 3.491481338843133355E-15, -1.224646799147353207E-16, 1.000000000000000000 ) ) ;
#56 =( NAMED_UNIT ( * ) SI_UNIT ( $, .STERADIAN. ) SOLID_ANGLE_UNIT ( ) );
#57 = AXIS2_PLACEMENT_3D ( 'NONE', #170, #102, #171 ) ;
#58 = FACE_OUTER_BOUND ( 'NONE', #131, .T. ) ;
#59 = PERSON_AND_ORGANIZATION ( #35, #32 ) ;
#60 = PERSON_AND_ORGANIZATION ( #35, #32 ) ;
#61 = PERSON_AND_ORGANIZATION_ROLE ( 'classification_officer' ) ;
#62 = ORIENTED_EDGE ( 'NONE', *, *, #29, .T. ) ;
#63 = ORIENTED_EDGE ( 'NONE', *, *, #147, .F. ) ;
#64 = LOCAL_TIME ( 7, 15, 52.00000000000000000, #75 ) ;
#65 = FACE_OUTER_BOUND ( 'NONE', #219, .T. ) ;
#66 = VERTEX_POINT ( 'NONE', #38 ) ;
#67 = VERTEX_POINT ( 'NONE', #213 ) ;
#68 = LOCAL_TIME ( 7, 15, 52.00000000000000000, #164 ) ;
#69 = DIRECTION ( 'NONE',  ( 0.0000000000000000000, 0.0000000000000000000, 1.000000000000000000 ) ) ;
#70 = CARTESIAN_POINT ( 'NONE',  ( 4.223038433510813836E-14, -1.481242486602798448E-15, 12.09526279441629448 ) ) ;
#71 = AXIS2_PLACEMENT_3D ( 'NONE', #140, #136, #90 ) ;
#72 = APPROVAL_STATUS ( 'not_yet_approved' ) ;
#73 = DATE_AND_TIME ( #93, #175 ) ;
#74 = APPROVAL ( #126, 'UNSPECIFIED' ) ;
#75 = COORDINATED_UNIVERSAL_TIME_OFFSET ( 1, 0, .AHEAD. ) ;
#76 = CC_DESIGN_APPROVAL ( #156, ( #216 ) ) ;
#77 = PERSON_AND_ORGANIZATION_ROLE ( 'creator' ) ;
#78 = APPROVAL_PERSON_ORGANIZATION ( #59, #156, #144 ) ;
#79 = EDGE_CURVE ( 'NONE', #43, #43, #137, .T. ) ;
#80 = CARTESIAN_POINT ( 'NONE',  ( 1.326762908760390423E-13, -4.653657836759941941E-15, 38.00000000000000000 ) ) ;
#81 = ORIENTED_EDGE ( 'NONE', *, *, #45, .T. ) ;
#82 = MANIFOLD_SOLID_BREP ( 'Corps-Déplacer/Copier1[2]', #48 ) ;
#83 = EDGE_LOOP ( 'NONE', ( #205 ) ) ;
#84 = AXIS2_PLACEMENT_3D ( 'NONE', #118, #186, #169 ) ;
#85 = DIRECTION ( 'NONE',  ( -3.491481338843133355E-15, 1.224646799147353207E-16, -1.000000000000000000 ) ) ;
#86 = VERTEX_POINT ( 'NONE', #138 ) ;
#87 = APPLICATION_PROTOCOL_DEFINITION ( 'international standard', 'config_control_design', 1994, #33 ) ;
#88 = LOCAL_TIME ( 7, 15, 52.00000000000000000, #143 ) ;
#89 = CARTESIAN_POINT ( 'NONE',  ( 1.326762908760390423E-13, -4.653657836759941941E-15, 38.00000000000000000 ) ) ;
#90 = DIRECTION ( 'NONE',  ( 0.0000000000000000000, 1.000000000000000000, 0.0000000000000000000 ) ) ;
#91 = ADVANCED_FACE ( 'NONE', ( #132 ), #167, .F. ) ;
#92 = CIRCLE ( 'NONE', #54, 0.9999999999999970024 ) ;
#93 = CALENDAR_DATE ( 2021, 8, 10 ) ;
#94 = APPROVAL_ROLE ( '' ) ;
#95 = PERSON_AND_ORGANIZATION ( #35, #32 ) ;
#96 = EDGE_LOOP ( 'NONE', ( #62 ) ) ;
#97 = ADVANCED_BREP_SHAPE_REPRESENTATION ( '55434', ( #11, #82, #176 ), #108 ) ;
#98 = CIRCLE ( 'NONE', #71, 1.000000000000000888 ) ;
#99 = FACE_OUTER_BOUND ( 'NONE', #96, .T. ) ;
#100 = DIRECTION ( 'NONE',  ( 4.275831445896958607E-31, 1.000000000000000000, 1.224646799147353207E-16 ) ) ;
#101 = PRODUCT_RELATED_PRODUCT_CATEGORY ( 'detail', '', ( #199 ) ) ;
#102 = DIRECTION ( 'NONE',  ( -3.491481338843133355E-15, 1.224646799147353207E-16, -1.000000000000000000 ) ) ;
#103 = DIRECTION ( 'NONE',  ( -4.275831445896958607E-31, -1.000000000000000000, -1.224646799147353207E-16 ) ) ;
#104 = EDGE_CURVE ( 'NONE', #66, #66, #42, .T. ) ;
#105 = DIRECTION ( 'NONE',  ( 0.0000000000000000000, 1.000000000000000000, 0.0000000000000000000 ) ) ;
#106 = CC_DESIGN_PERSON_AND_ORGANIZATION_ASSIGNMENT ( #125, #142, ( #216 ) ) ;
#107 = DIRECTION ( 'NONE',  ( 4.275831445896957731E-31, 1.000000000000000000, 1.224646799147353454E-16 ) ) ;
#108 =( GEOMETRIC_REPRESENTATION_CONTEXT ( 3 ) GLOBAL_UNCERTAINTY_ASSIGNED_CONTEXT ( ( #184 ) ) GLOBAL_UNIT_ASSIGNED_CONTEXT ( ( #3, #161, #56 ) ) REPRESENTATION_CONTEXT ( 'NONE', 'WORKASPACE' ) );
#109 = CC_DESIGN_PERSON_AND_ORGANIZATION_ASSIGNMENT ( #174, #20, ( #199 ) ) ;
#110 = CARTESIAN_POINT ( 'NONE',  ( 4.189777606611760026E-14, 0.9449999999999936229, 12.00000000000000000 ) ) ;
#111 = CARTESIAN_POINT ( 'NONE',  ( 1.326762908760390423E-13, 0.7999999999999962697, 38.00000000000000000 ) ) ;
#112 = CALENDAR_DATE ( 2021, 8, 10 ) ;
#113 = CC_DESIGN_PERSON_AND_ORGANIZATION_ASSIGNMENT ( #8, #77, ( #151 ) ) ;
#114 = AXIS2_PLACEMENT_3D ( 'NONE', #211, #36, #103 ) ;
#115 = APPROVAL_DATE_TIME ( #145, #74 ) ;
#116 = ADVANCED_FACE ( 'NONE', ( #65 ), #135, .T. ) ;
#117 = APPROVAL_DATE_TIME ( #73, #156 ) ;
#118 = CARTESIAN_POINT ( 'NONE',  ( 4.189777606611760026E-14, 7.086364973077216711E-33, 12.00000000000000000 ) ) ;
#119 = EDGE_LOOP ( 'NONE', ( #81 ) ) ;
#120 = AXIS2_PLACEMENT_3D ( 'NONE', #80, #85, #121 ) ;
#121 = DIRECTION ( 'NONE',  ( 0.0000000000000000000, 1.000000000000000000, 0.0000000000000000000 ) ) ;
#122 = EDGE_LOOP ( 'NONE', ( #50 ) ) ;
#123 = DIRECTION ( 'NONE',  ( 4.275831445896957731E-31, 1.000000000000000000, 1.224646799147353207E-16 ) ) ;
#124 = CARTESIAN_POINT ( 'NONE',  ( 0.0000000000000000000, 0.0000000000000000000, 0.0000000000000000000 ) ) ;
#125 = PERSON_AND_ORGANIZATION ( #35, #32 ) ;
#126 = APPROVAL_STATUS ( 'not_yet_approved' ) ;
#127 = CALENDAR_DATE ( 2021, 8, 10 ) ;
#128 = PERSON_AND_ORGANIZATION ( #35, #32 ) ;
#129 = AXIS2_PLACEMENT_3D ( 'NONE', #70, #37, #223 ) ;
#130 = EDGE_LOOP ( 'NONE', ( #134 ) ) ;
#131 = EDGE_LOOP ( 'NONE', ( #222 ) ) ;
#132 = FACE_OUTER_BOUND ( 'NONE', #49, .T. ) ;
#133 = LOCAL_TIME ( 7, 15, 52.00000000000000000, #202 ) ;
#134 = ORIENTED_EDGE ( 'NONE', *, *, #79, .T. ) ;
#135 = PLANE ( 'NONE',  #114 ) ;
#136 = DIRECTION ( 'NONE',  ( -3.491481338843133355E-15, 1.224646799147353207E-16, -1.000000000000000000 ) ) ;
#137 = CIRCLE ( 'NONE', #120, 0.8000000000000009326 ) ;
#138 = CARTESIAN_POINT ( 'NONE',  ( 1.319779946082704535E-13, 0.9999999999999963363, 37.79999999999999716 ) ) ;
#139 = MECHANICAL_CONTEXT ( 'NONE', #27, 'mechanical' ) ;
#140 = CARTESIAN_POINT ( 'NONE',  ( 1.319779946082704535E-13, -4.629164900776995227E-15, 37.79999999999999716 ) ) ;
#141 = ADVANCED_FACE ( 'NONE', ( #172, #155 ), #17, .T. ) ;
#142 = PERSON_AND_ORGANIZATION_ROLE ( 'creator' ) ;
#143 = COORDINATED_UNIVERSAL_TIME_OFFSET ( 1, 0, .AHEAD. ) ;
#144 = APPROVAL_ROLE ( '' ) ;
#145 = DATE_AND_TIME ( #183, #68 ) ;
#146 = CC_DESIGN_PERSON_AND_ORGANIZATION_ASSIGNMENT ( #95, #61, ( #9 ) ) ;
#147 = EDGE_CURVE ( 'NONE', #86, #86, #98, .T. ) ;
#148 = CARTESIAN_POINT ( 'NONE',  ( 1.326762908760390423E-13, 5.999039130647367482E-33, 38.00000000000000000 ) ) ;
#149 = ORIENTED_EDGE ( 'NONE', *, *, #104, .F. ) ;
#150 = ORIENTED_EDGE ( 'NONE', *, *, #29, .F. ) ;
#151 = PRODUCT_DEFINITION ( 'UNKNOWN', '', #216, #182 ) ;
#152 = CIRCLE ( 'NONE', #203, 0.9449999999999950662 ) ;
#153 = ADVANCED_FACE ( 'NONE', ( #58, #2 ), #159, .T. ) ;
#154 = FACE_OUTER_BOUND ( 'NONE', #12, .T. ) ;
#155 = FACE_OUTER_BOUND ( 'NONE', #119, .T. ) ;
#156 = APPROVAL ( #72, 'UNSPECIFIED' ) ;
#157 = CARTESIAN_POINT ( 'NONE',  ( 1.982509488458542950E-15, -6.953707219653828903E-17, 0.5678132849810467730 ) ) ;
#158 = CONICAL_SURFACE ( 'NONE', #13, 0.8000000000000009326, 0.7853981633974512766 ) ;
#159 = CYLINDRICAL_SURFACE ( 'NONE', #180, 0.9999999999999988898 ) ;
#160 = FACE_OUTER_BOUND ( 'NONE', #210, .T. ) ;
#161 =( NAMED_UNIT ( * ) PLANE_ANGLE_UNIT ( ) SI_UNIT ( $, .RADIAN. ) );
#162 = AXIS2_PLACEMENT_3D ( 'NONE', #212, #173, #19 ) ;
#163 = APPROVAL_STATUS ( 'not_yet_approved' ) ;
#164 = COORDINATED_UNIVERSAL_TIME_OFFSET ( 1, 0, .AHEAD. ) ;
#165 = APPROVAL_PERSON_ORGANIZATION ( #128, #191, #47 ) ;
#166 = DATE_AND_TIME ( #127, #64 ) ;
#167 = PLANE ( 'NONE',  #6 ) ;
#168 = APPROVAL_PERSON_ORGANIZATION ( #179, #74, #94 ) ;
#169 = DIRECTION ( 'NONE',  ( -4.275831445896958607E-31, -1.000000000000000000, -1.224646799147353207E-16 ) ) ;
#170 = CARTESIAN_POINT ( 'NONE',  ( 1.982509488458542950E-15, -6.953707219653828903E-17, 0.5678132849810467730 ) ) ;
#171 = DIRECTION ( 'NONE',  ( 4.076042210343383569E-31, 1.000000000000000000, 1.147303886228054695E-16 ) ) ;
#172 = FACE_BOUND ( 'NONE', #52, .T. ) ;
#173 = DIRECTION ( 'NONE',  ( -3.491481338843133355E-15, 1.224646799147353207E-16, -1.000000000000000000 ) ) ;
#174 = PERSON_AND_ORGANIZATION ( #35, #32 ) ;
#175 = LOCAL_TIME ( 7, 15, 52.00000000000000000, #218 ) ;
#176 = AXIS2_PLACEMENT_3D ( 'NONE', #124, #69, #195 ) ;
#177 = DIRECTION ( 'NONE',  ( -3.491481338843133355E-15, 1.224646799147353207E-16, -1.000000000000000000 ) ) ;
#178 = VERTEX_POINT ( 'NONE', #198 ) ;
#179 = PERSON_AND_ORGANIZATION ( #35, #32 ) ;
#180 = AXIS2_PLACEMENT_3D ( 'NONE', #21, #177, #107 ) ;
#181 = PERSON_AND_ORGANIZATION_ROLE ( 'design_supplier' ) ;
#182 = DESIGN_CONTEXT ( 'detailed design', #33, 'design' ) ;
#183 = CALENDAR_DATE ( 2021, 8, 10 ) ;
#184 = UNCERTAINTY_MEASURE_WITH_UNIT (LENGTH_MEASURE( 1.000000000000000082E-05 ), #3, 'distance_accuracy_value', 'NONE');
#185 = CONICAL_SURFACE ( 'NONE', #188, 0.9449999999999936229, 1.029744258676649649 ) ;
#186 = DIRECTION ( 'NONE',  ( 3.491481338843133355E-15, -1.224646799147353207E-16, 1.000000000000000000 ) ) ;
#187 = DIRECTION ( 'NONE',  ( 0.0000000000000000000, 1.000000000000000000, 0.0000000000000000000 ) ) ;
#188 = AXIS2_PLACEMENT_3D ( 'NONE', #157, #55, #196 ) ;
#189 = CARTESIAN_POINT ( 'NONE',  ( 4.189777606611760026E-14, -1.469576158976823947E-15, 12.00000000000000000 ) ) ;
#190 = DIRECTION ( 'NONE',  ( -3.491481338843133355E-15, 1.224646799147353207E-16, -1.000000000000000000 ) ) ;
#191 = APPROVAL ( #163, 'UNSPECIFIED' ) ;
#192 = DIRECTION ( 'NONE',  ( -3.491481338843133355E-15, 1.224646799147353207E-16, -1.000000000000000000 ) ) ;
#193 = CC_DESIGN_DATE_AND_TIME_ASSIGNMENT ( #200, #44, ( #151 ) ) ;
#194 = APPLICATION_PROTOCOL_DEFINITION ( 'international standard', 'config_control_design', 1994, #27 ) ;
#195 = DIRECTION ( 'NONE',  ( 1.000000000000000000, 0.0000000000000000000, 0.0000000000000000000 ) ) ;
#196 = DIRECTION ( 'NONE',  ( -4.076042210343383569E-31, -1.000000000000000000, -1.147303886228054695E-16 ) ) ;
#197 = CC_DESIGN_APPROVAL ( #191, ( #9 ) ) ;
#198 = CARTESIAN_POINT ( 'NONE',  ( 4.189777606611760026E-14, 0.9449999999999936229, 12.00000000000000000 ) ) ;
#199 = PRODUCT ( '55434', '55434', '', ( #139 ) ) ;
#200 = DATE_AND_TIME ( #112, #88 ) ;
#201 = DATE_TIME_ROLE ( 'classification_date' ) ;
#202 = COORDINATED_UNIVERSAL_TIME_OFFSET ( 1, 0, .AHEAD. ) ;
#203 = AXIS2_PLACEMENT_3D ( 'NONE', #189, #192, #187 ) ;
#204 = ORIENTED_EDGE ( 'NONE', *, *, #79, .F. ) ;
#205 = ORIENTED_EDGE ( 'NONE', *, *, #147, .T. ) ;
#206 = ADVANCED_FACE ( 'NONE', ( #40 ), #185, .T. ) ;
#207 = DIRECTION ( 'NONE',  ( -3.491481338843133355E-15, 1.224646799147353207E-16, -1.000000000000000000 ) ) ;
#208 = ADVANCED_FACE ( 'NONE', ( #160, #214 ), #158, .T. ) ;
#209 = AXIS2_PLACEMENT_3D ( 'NONE', #14, #190, #123 ) ;
#210 = EDGE_LOOP ( 'NONE', ( #63 ) ) ;
#211 = CARTESIAN_POINT ( 'NONE',  ( 4.189777606611760026E-14, 7.086364973077216711E-33, 12.00000000000000000 ) ) ;
#212 = CARTESIAN_POINT ( 'NONE',  ( 4.189777606611760026E-14, -1.469576158976823947E-15, 12.00000000000000000 ) ) ;
#213 = CARTESIAN_POINT ( 'NONE',  ( 4.223038433510813836E-14, 0.9999999999999954481, 12.09526279441629448 ) ) ;
#214 = FACE_BOUND ( 'NONE', #130, .T. ) ;
#215 = EDGE_CURVE ( 'NONE', #22, #22, #51, .T. ) ;
#216 = PRODUCT_DEFINITION_FORMATION_WITH_SPECIFIED_SOURCE ( 'ANY', '', #199, .NOT_KNOWN. ) ;
#217 = CC_DESIGN_SECURITY_CLASSIFICATION ( #9, ( #216 ) ) ;
#218 = COORDINATED_UNIVERSAL_TIME_OFFSET ( 1, 0, .AHEAD. ) ;
#219 = EDGE_LOOP ( 'NONE', ( #30 ) ) ;
#220 = PLANE ( 'NONE',  #84 ) ;
#221 = CYLINDRICAL_SURFACE ( 'NONE', #209, 0.9449999999999944000 ) ;
#222 = ORIENTED_EDGE ( 'NONE', *, *, #45, .F. ) ;
#223 = DIRECTION ( 'NONE',  ( 0.0000000000000000000, -1.000000000000000000, 0.0000000000000000000 ) ) ;
ENDSEC;
END-ISO-10303-21;
