ISO-10303-21;
HEADER;
FILE_DESCRIPTION (( 'STEP AP203' ),
    '1' );
FILE_NAME ('55433.step',
    '2021-10-08T05:15:51',
    ( '' ),
    ( '' ),
    'SwSTEP 2.0',
    'SolidWorks 2019',
    '' );
FILE_SCHEMA (( 'CONFIG_CONTROL_DESIGN' ));
ENDSEC;

DATA;
#1 = ORIENTED_EDGE ( 'NONE', *, *, #128, .F. ) ;
#2 = ORGANIZATION ( 'UNSPECIFIED', 'UNSPECIFIED', '' ) ;
#3 = AXIS2_PLACEMENT_3D ( 'NONE', #73, #123, #58 ) ;
#4 = CARTESIAN_POINT ( 'NONE',  ( 4.229085856583368845E-14, -1.483363637080248142E-15, 12.11258330249198245 ) ) ;
#5 = FACE_BOUND ( 'NONE', #141, .T. ) ;
#6 = CLOSED_SHELL ( 'NONE', ( #178, #135, #100, #211, #111 ) ) ;
#7 = CARTESIAN_POINT ( 'NONE',  ( 1.326762908760390423E-13, -4.653657836759941941E-15, 38.00000000000000000 ) ) ;
#8 = CARTESIAN_POINT ( 'NONE',  ( 1.961530552072738384E-15, 0.9349999999999935030, 0.5618046787907712281 ) ) ;
#9 = CARTESIAN_POINT ( 'NONE',  ( 4.189777606611760026E-14, 0.9349999999999922817, 12.00000000000000000 ) ) ;
#10 = PRODUCT_DEFINITION_SHAPE ( 'NONE', 'NONE',  #63 ) ;
#11 = APPROVAL_ROLE ( '' ) ;
#12 = EDGE_CURVE ( 'NONE', #46, #46, #126, .T. ) ;
#13 = CIRCLE ( 'NONE', #33, 0.9349999999999937250 ) ;
#14 = DATE_AND_TIME ( #104, #40 ) ;
#15 = PERSON_AND_ORGANIZATION_ROLE ( 'design_supplier' ) ;
#16 = EDGE_LOOP ( 'NONE', ( #143 ) ) ;
#17 = LOCAL_TIME ( 7, 15, 51.00000000000000000, #31 ) ;
#18 = PERSON_AND_ORGANIZATION_ROLE ( 'classification_officer' ) ;
#19 = DIRECTION ( 'NONE',  ( 3.491481338843133355E-15, -1.224646799147353207E-16, 1.000000000000000000 ) ) ;
#20 = ORIENTED_EDGE ( 'NONE', *, *, #90, .T. ) ;
#21 = ORIENTED_EDGE ( 'NONE', *, *, #154, .T. ) ;
#22 = AXIS2_PLACEMENT_3D ( 'NONE', #7, #26, #75 ) ;
#23 = DIRECTION ( 'NONE',  ( -4.119636244678607325E-31, -1.000000000000000000, -1.159574516027285340E-16 ) ) ;
#24 = VERTEX_POINT ( 'NONE', #151 ) ;
#25 = AXIS2_PLACEMENT_3D ( 'NONE', #223, #72, #217 ) ;
#26 = DIRECTION ( 'NONE',  ( -3.491481338843133355E-15, 1.224646799147353207E-16, -1.000000000000000000 ) ) ;
#27 = DATE_AND_TIME ( #124, #109 ) ;
#28 = CC_DESIGN_DATE_AND_TIME_ASSIGNMENT ( #171, #82, ( #194 ) ) ;
#29 = PERSON_AND_ORGANIZATION_ROLE ( 'creator' ) ;
#30 = ORIENTED_EDGE ( 'NONE', *, *, #56, .T. ) ;
#31 = COORDINATED_UNIVERSAL_TIME_OFFSET ( 1, 0, .AHEAD. ) ;
#32 = PLANE ( 'NONE',  #186 ) ;
#33 = AXIS2_PLACEMENT_3D ( 'NONE', #43, #197, #132 ) ;
#34 = CC_DESIGN_DATE_AND_TIME_ASSIGNMENT ( #99, #139, ( #63 ) ) ;
#35 = EDGE_LOOP ( 'NONE', ( #181 ) ) ;
#36 = APPLICATION_CONTEXT ( 'configuration controlled 3d designs of mechanical parts and assemblies' ) ;
#37 = ADVANCED_BREP_SHAPE_REPRESENTATION ( '55433', ( #163, #85, #98 ), #152 ) ;
#38 = VERTEX_POINT ( 'NONE', #9 ) ;
#39 = CIRCLE ( 'NONE', #25, 0.9349999999999937250 ) ;
#40 = LOCAL_TIME ( 7, 15, 51.00000000000000000, #119 ) ;
#41 = CC_DESIGN_PERSON_AND_ORGANIZATION_ASSIGNMENT ( #81, #155, ( #204 ) ) ;
#42 = DIRECTION ( 'NONE',  ( -3.491481338843133355E-15, 1.224646799147353207E-16, -1.000000000000000000 ) ) ;
#43 = CARTESIAN_POINT ( 'NONE',  ( 4.189777606611760026E-14, -1.469576158976823947E-15, 12.00000000000000000 ) ) ;
#44 = CARTESIAN_POINT ( 'NONE',  ( 4.189777606611760026E-14, 7.011376983944115073E-33, 12.00000000000000000 ) ) ;
#45 = DESIGN_CONTEXT ( 'detailed design', #110, 'design' ) ;
#46 = VERTEX_POINT ( 'NONE', #96 ) ;
#47 = CALENDAR_DATE ( 2021, 8, 10 ) ;
#48 = CARTESIAN_POINT ( 'NONE',  ( 0.0000000000000000000, 0.0000000000000000000, 0.0000000000000000000 ) ) ;
#49 = PERSON_AND_ORGANIZATION ( #176, #2 ) ;
#50 = CLOSED_SHELL ( 'NONE', ( #208, #120, #76 ) ) ;
#51 = APPROVAL_ROLE ( '' ) ;
#52 = EDGE_LOOP ( 'NONE', ( #179 ) ) ;
#53 = APPROVAL_DATE_TIME ( #14, #57 ) ;
#54 = CARTESIAN_POINT ( 'NONE',  ( 1.961530552072737990E-15, -6.880123016271247587E-17, 0.5618046787907711170 ) ) ;
#55 = ORIENTED_EDGE ( 'NONE', *, *, #87, .T. ) ;
#56 = EDGE_CURVE ( 'NONE', #146, #146, #161, .T. ) ;
#57 = APPROVAL ( #173, 'UNSPECIFIED' ) ;
#58 = DIRECTION ( 'NONE',  ( 0.0000000000000000000, 1.000000000000000000, 0.0000000000000000000 ) ) ;
#59 = DIRECTION ( 'NONE',  ( -3.491481338843133355E-15, 1.224646799147353207E-16, -1.000000000000000000 ) ) ;
#60 = LOCAL_TIME ( 7, 15, 51.00000000000000000, #202 ) ;
#61 = DIRECTION ( 'NONE',  ( 3.491481338843133355E-15, -1.224646799147353207E-16, 1.000000000000000000 ) ) ;
#62 = CARTESIAN_POINT ( 'NONE',  ( 1.326762908760390423E-13, 5.999039130647367482E-33, 38.00000000000000000 ) ) ;
#63 = PRODUCT_DEFINITION ( 'UNKNOWN', '', #204, #45 ) ;
#64 = FACE_OUTER_BOUND ( 'NONE', #125, .T. ) ;
#65 = AXIS2_PLACEMENT_3D ( 'NONE', #54, #192, #177 ) ;
#66 = DIRECTION ( 'NONE',  ( -3.491481338843133355E-15, 1.224646799147353207E-16, -1.000000000000000000 ) ) ;
#67 = APPROVAL_ROLE ( '' ) ;
#68 = APPLICATION_PROTOCOL_DEFINITION ( 'international standard', 'config_control_design', 1994, #36 ) ;
#69 = CALENDAR_DATE ( 2021, 8, 10 ) ;
#70 = EDGE_LOOP ( 'NONE', ( #20 ) ) ;
#71 = APPROVAL_STATUS ( 'not_yet_approved' ) ;
#72 = DIRECTION ( 'NONE',  ( -3.491481338843133355E-15, 1.224646799147353207E-16, -1.000000000000000000 ) ) ;
#73 = CARTESIAN_POINT ( 'NONE',  ( 1.319779946082704535E-13, -4.629164900776995227E-15, 37.79999999999999716 ) ) ;
#74 = APPROVAL_PERSON_ORGANIZATION ( #221, #212, #51 ) ;
#75 = DIRECTION ( 'NONE',  ( 0.0000000000000000000, 1.000000000000000000, 0.0000000000000000000 ) ) ;
#76 = ADVANCED_FACE ( 'NONE', ( #105 ), #32, .T. ) ;
#77 = DIRECTION ( 'NONE',  ( -3.491481338843133355E-15, 1.224646799147353207E-16, -1.000000000000000000 ) ) ;
#78 = DIRECTION ( 'NONE',  ( 4.275831445896958607E-31, 1.000000000000000000, 1.224646799147352961E-16 ) ) ;
#79 = FACE_OUTER_BOUND ( 'NONE', #91, .T. ) ;
#80 = VERTEX_POINT ( 'NONE', #184 ) ;
#81 = PERSON_AND_ORGANIZATION ( #176, #2 ) ;
#82 = DATE_TIME_ROLE ( 'classification_date' ) ;
#83 =( NAMED_UNIT ( * ) SI_UNIT ( $, .STERADIAN. ) SOLID_ANGLE_UNIT ( ) );
#84 = CONICAL_SURFACE ( 'NONE', #210, 0.9999999999999970024, 0.5235987755983000369 ) ;
#85 = MANIFOLD_SOLID_BREP ( 'Corps-Déplacer/Copier1[2]', #50 ) ;
#86 = ORIENTED_EDGE ( 'NONE', *, *, #12, .F. ) ;
#87 = EDGE_CURVE ( 'NONE', #38, #38, #39, .T. ) ;
#88 = ORIENTED_EDGE ( 'NONE', *, *, #90, .F. ) ;
#89 = CC_DESIGN_APPROVAL ( #175, ( #63 ) ) ;
#90 = EDGE_CURVE ( 'NONE', #80, #80, #138, .T. ) ;
#91 = EDGE_LOOP ( 'NONE', ( #86 ) ) ;
#92 = DIRECTION ( 'NONE',  ( -3.491481338843133355E-15, 1.224646799147353207E-16, -1.000000000000000000 ) ) ;
#93 = DIRECTION ( 'NONE',  ( 4.275831445896958607E-31, 1.000000000000000000, 1.224646799147353207E-16 ) ) ;
#94 = VERTEX_POINT ( 'NONE', #185 ) ;
#95 = CARTESIAN_POINT ( 'NONE',  ( 4.229085856583368845E-14, -1.483363637080248142E-15, 12.11258330249198245 ) ) ;
#96 = CARTESIAN_POINT ( 'NONE',  ( 1.319779946082704535E-13, 0.9999999999999963363, 37.79999999999999716 ) ) ;
#97 = DIRECTION ( 'NONE',  ( 0.0000000000000000000, 0.0000000000000000000, 1.000000000000000000 ) ) ;
#98 = AXIS2_PLACEMENT_3D ( 'NONE', #48, #97, #191 ) ;
#99 = DATE_AND_TIME ( #47, #147 ) ;
#100 = ADVANCED_FACE ( 'NONE', ( #64, #145 ), #213, .T. ) ;
#101 = CALENDAR_DATE ( 2021, 8, 10 ) ;
#102 = CC_DESIGN_PERSON_AND_ORGANIZATION_ASSIGNMENT ( #134, #158, ( #118 ) ) ;
#103 = APPROVAL_DATE_TIME ( #27, #212 ) ;
#104 = CALENDAR_DATE ( 2021, 8, 10 ) ;
#105 = FACE_OUTER_BOUND ( 'NONE', #156, .T. ) ;
#106 = APPROVAL_PERSON_ORGANIZATION ( #222, #57, #67 ) ;
#107 = CC_DESIGN_SECURITY_CLASSIFICATION ( #194, ( #204 ) ) ;
#108 = AXIS2_PLACEMENT_3D ( 'NONE', #168, #92, #131 ) ;
#109 = LOCAL_TIME ( 7, 15, 51.00000000000000000, #188 ) ;
#110 = APPLICATION_CONTEXT ( 'configuration controlled 3d designs of mechanical parts and assemblies' ) ;
#111 = ADVANCED_FACE ( 'NONE', ( #214 ), #196, .F. ) ;
#112 = DIRECTION ( 'NONE',  ( 3.491481338843133355E-15, -1.224646799147353207E-16, 1.000000000000000000 ) ) ;
#113 = FACE_BOUND ( 'NONE', #16, .T. ) ;
#114 = DIRECTION ( 'NONE',  ( 3.491481338843133355E-15, -1.224646799147353207E-16, 1.000000000000000000 ) ) ;
#115 = AXIS2_PLACEMENT_3D ( 'NONE', #195, #77, #218 ) ;
#116 = FACE_OUTER_BOUND ( 'NONE', #35, .T. ) ;
#117 = UNCERTAINTY_MEASURE_WITH_UNIT (LENGTH_MEASURE( 1.000000000000000082E-05 ), #166, 'distance_accuracy_value', 'NONE');
#118 = PRODUCT ( '55433', '55433', '', ( #137 ) ) ;
#119 = COORDINATED_UNIVERSAL_TIME_OFFSET ( 1, 0, .AHEAD. ) ;
#120 = ADVANCED_FACE ( 'NONE', ( #116, #164 ), #216, .T. ) ;
#121 = PERSON_AND_ORGANIZATION ( #176, #2 ) ;
#122 = PERSON_AND_ORGANIZATION ( #176, #2 ) ;
#123 = DIRECTION ( 'NONE',  ( -3.491481338843133355E-15, 1.224646799147353207E-16, -1.000000000000000000 ) ) ;
#124 = CALENDAR_DATE ( 2021, 8, 10 ) ;
#125 = EDGE_LOOP ( 'NONE', ( #88 ) ) ;
#126 = CIRCLE ( 'NONE', #3, 1.000000000000000888 ) ;
#127 = EDGE_LOOP ( 'NONE', ( #55 ) ) ;
#128 = EDGE_CURVE ( 'NONE', #24, #24, #13, .T. ) ;
#129 = PLANE ( 'NONE',  #190 ) ;
#130 = APPROVAL_PERSON_ORGANIZATION ( #49, #175, #11 ) ;
#131 = DIRECTION ( 'NONE',  ( 4.275831445896957731E-31, 1.000000000000000000, 1.224646799147353454E-16 ) ) ;
#132 = DIRECTION ( 'NONE',  ( 0.0000000000000000000, 1.000000000000000000, 0.0000000000000000000 ) ) ;
#133 = CARTESIAN_POINT ( 'NONE',  ( 0.0000000000000000000, 0.0000000000000000000, 0.0000000000000000000 ) ) ;
#134 = PERSON_AND_ORGANIZATION ( #176, #2 ) ;
#135 = ADVANCED_FACE ( 'NONE', ( #113, #198 ), #84, .T. ) ;
#136 =( NAMED_UNIT ( * ) PLANE_ANGLE_UNIT ( ) SI_UNIT ( $, .RADIAN. ) );
#137 = MECHANICAL_CONTEXT ( 'NONE', #36, 'mechanical' ) ;
#138 = CIRCLE ( 'NONE', #157, 0.9999999999999970024 ) ;
#139 = DATE_TIME_ROLE ( 'creation_date' ) ;
#140 = SHAPE_DEFINITION_REPRESENTATION ( #10, #37 ) ;
#141 = EDGE_LOOP ( 'NONE', ( #21 ) ) ;
#142 = AXIS2_PLACEMENT_3D ( 'NONE', #187, #112, #23 ) ;
#143 = ORIENTED_EDGE ( 'NONE', *, *, #87, .F. ) ;
#144 = PRODUCT_RELATED_PRODUCT_CATEGORY ( 'detail', '', ( #118 ) ) ;
#145 = FACE_OUTER_BOUND ( 'NONE', #52, .T. ) ;
#146 = VERTEX_POINT ( 'NONE', #8 ) ;
#147 = LOCAL_TIME ( 7, 15, 51.00000000000000000, #219 ) ;
#148 = CONICAL_SURFACE ( 'NONE', #142, 0.9349999999999936140, 1.029744258676649649 ) ;
#149 = CC_DESIGN_APPROVAL ( #212, ( #194 ) ) ;
#150 = DIRECTION ( 'NONE',  ( 0.0000000000000000000, 1.000000000000000000, 0.0000000000000000000 ) ) ;
#151 = CARTESIAN_POINT ( 'NONE',  ( 4.189777606611760026E-14, 0.9349999999999922817, 12.00000000000000000 ) ) ;
#152 =( GEOMETRIC_REPRESENTATION_CONTEXT ( 3 ) GLOBAL_UNCERTAINTY_ASSIGNED_CONTEXT ( ( #117 ) ) GLOBAL_UNIT_ASSIGNED_CONTEXT ( ( #166, #136, #83 ) ) REPRESENTATION_CONTEXT ( 'NONE', 'WORKASPACE' ) );
#153 = PERSON_AND_ORGANIZATION ( #176, #2 ) ;
#154 = EDGE_CURVE ( 'NONE', #94, #94, #193, .T. ) ;
#155 = PERSON_AND_ORGANIZATION_ROLE ( 'creator' ) ;
#156 = EDGE_LOOP ( 'NONE', ( #1 ) ) ;
#157 = AXIS2_PLACEMENT_3D ( 'NONE', #95, #42, #150 ) ;
#158 = PERSON_AND_ORGANIZATION_ROLE ( 'design_owner' ) ;
#159 = CC_DESIGN_PERSON_AND_ORGANIZATION_ASSIGNMENT ( #153, #29, ( #63 ) ) ;
#160 = DIRECTION ( 'NONE',  ( -4.275831445896958607E-31, -1.000000000000000000, -1.224646799147353207E-16 ) ) ;
#161 = CIRCLE ( 'NONE', #65, 0.9349999999999936140 ) ;
#162 = ORIENTED_EDGE ( 'NONE', *, *, #128, .T. ) ;
#163 = MANIFOLD_SOLID_BREP ( 'Corps-Déplacer/Copier1[1]', #6 ) ;
#164 = FACE_OUTER_BOUND ( 'NONE', #207, .T. ) ;
#165 = FACE_OUTER_BOUND ( 'NONE', #172, .T. ) ;
#166 =( LENGTH_UNIT ( ) NAMED_UNIT ( * ) SI_UNIT ( .MILLI., .METRE. ) );
#167 = FACE_OUTER_BOUND ( 'NONE', #127, .T. ) ;
#168 = CARTESIAN_POINT ( 'NONE',  ( 0.0000000000000000000, 0.0000000000000000000, 0.0000000000000000000 ) ) ;
#169 = CONICAL_SURFACE ( 'NONE', #115, 0.8000000000000009326, 0.7853981633974512766 ) ;
#170 = DATE_AND_TIME ( #69, #60 ) ;
#171 = DATE_AND_TIME ( #101, #17 ) ;
#172 = EDGE_LOOP ( 'NONE', ( #30 ) ) ;
#173 = APPROVAL_STATUS ( 'not_yet_approved' ) ;
#174 = CARTESIAN_POINT ( 'NONE',  ( 4.189777606611760026E-14, 7.011376983944115073E-33, 12.00000000000000000 ) ) ;
#175 = APPROVAL ( #71, 'UNSPECIFIED' ) ;
#176 = PERSON ( 'UNSPECIFIED', 'UNSPECIFIED', 'UNSPECIFIED', ('UNSPECIFIED'), ('UNSPECIFIED'), ('UNSPECIFIED') ) ;
#177 = DIRECTION ( 'NONE',  ( 4.119636244678607325E-31, 1.000000000000000000, 1.159574516027285340E-16 ) ) ;
#178 = ADVANCED_FACE ( 'NONE', ( #167 ), #129, .F. ) ;
#179 = ORIENTED_EDGE ( 'NONE', *, *, #12, .T. ) ;
#180 = AXIS2_PLACEMENT_3D ( 'NONE', #62, #59, #93 ) ;
#181 = ORIENTED_EDGE ( 'NONE', *, *, #56, .F. ) ;
#182 = AXIS2_PLACEMENT_3D ( 'NONE', #133, #66, #78 ) ;
#183 = DIRECTION ( 'NONE',  ( -4.275831445896958607E-31, -1.000000000000000000, -1.224646799147353207E-16 ) ) ;
#184 = CARTESIAN_POINT ( 'NONE',  ( 4.229085856583368845E-14, 0.9999999999999954481, 12.11258330249198245 ) ) ;
#185 = CARTESIAN_POINT ( 'NONE',  ( 1.326762908760390423E-13, 0.7999999999999962697, 38.00000000000000000 ) ) ;
#186 = AXIS2_PLACEMENT_3D ( 'NONE', #174, #19, #160 ) ;
#187 = CARTESIAN_POINT ( 'NONE',  ( 1.961530552072737990E-15, -6.880123016271247587E-17, 0.5618046787907711170 ) ) ;
#188 = COORDINATED_UNIVERSAL_TIME_OFFSET ( 1, 0, .AHEAD. ) ;
#189 = APPLICATION_PROTOCOL_DEFINITION ( 'international standard', 'config_control_design', 1994, #110 ) ;
#190 = AXIS2_PLACEMENT_3D ( 'NONE', #44, #114, #183 ) ;
#191 = DIRECTION ( 'NONE',  ( 1.000000000000000000, 0.0000000000000000000, 0.0000000000000000000 ) ) ;
#192 = DIRECTION ( 'NONE',  ( -3.491481338843133355E-15, 1.224646799147353207E-16, -1.000000000000000000 ) ) ;
#193 = CIRCLE ( 'NONE', #22, 0.8000000000000009326 ) ;
#194 = SECURITY_CLASSIFICATION ( '', '', #220 ) ;
#195 = CARTESIAN_POINT ( 'NONE',  ( 1.326762908760390423E-13, -4.653657836759941941E-15, 38.00000000000000000 ) ) ;
#196 = PLANE ( 'NONE',  #180 ) ;
#197 = DIRECTION ( 'NONE',  ( -3.491481338843133355E-15, 1.224646799147353207E-16, -1.000000000000000000 ) ) ;
#198 = FACE_OUTER_BOUND ( 'NONE', #70, .T. ) ;
#199 = DIRECTION ( 'NONE',  ( 0.0000000000000000000, -1.000000000000000000, 0.0000000000000000000 ) ) ;
#200 = APPROVAL_DATE_TIME ( #170, #175 ) ;
#201 = CC_DESIGN_PERSON_AND_ORGANIZATION_ASSIGNMENT ( #122, #18, ( #194 ) ) ;
#202 = COORDINATED_UNIVERSAL_TIME_OFFSET ( 1, 0, .AHEAD. ) ;
#203 = CC_DESIGN_PERSON_AND_ORGANIZATION_ASSIGNMENT ( #121, #15, ( #204 ) ) ;
#204 = PRODUCT_DEFINITION_FORMATION_WITH_SPECIFIED_SOURCE ( 'ANY', '', #118, .NOT_KNOWN. ) ;
#205 = APPROVAL_STATUS ( 'not_yet_approved' ) ;
#206 = ORIENTED_EDGE ( 'NONE', *, *, #154, .F. ) ;
#207 = EDGE_LOOP ( 'NONE', ( #162 ) ) ;
#208 = ADVANCED_FACE ( 'NONE', ( #165 ), #148, .T. ) ;
#209 = EDGE_LOOP ( 'NONE', ( #206 ) ) ;
#210 = AXIS2_PLACEMENT_3D ( 'NONE', #4, #61, #199 ) ;
#211 = ADVANCED_FACE ( 'NONE', ( #79, #5 ), #169, .T. ) ;
#212 = APPROVAL ( #205, 'UNSPECIFIED' ) ;
#213 = CYLINDRICAL_SURFACE ( 'NONE', #108, 0.9999999999999988898 ) ;
#214 = FACE_OUTER_BOUND ( 'NONE', #209, .T. ) ;
#215 = CC_DESIGN_APPROVAL ( #57, ( #204 ) ) ;
#216 = CYLINDRICAL_SURFACE ( 'NONE', #182, 0.9349999999999937250 ) ;
#217 = DIRECTION ( 'NONE',  ( 0.0000000000000000000, 1.000000000000000000, 0.0000000000000000000 ) ) ;
#218 = DIRECTION ( 'NONE',  ( 0.0000000000000000000, 1.000000000000000000, 0.0000000000000000000 ) ) ;
#219 = COORDINATED_UNIVERSAL_TIME_OFFSET ( 1, 0, .AHEAD. ) ;
#220 = SECURITY_CLASSIFICATION_LEVEL ( 'unclassified' ) ;
#221 = PERSON_AND_ORGANIZATION ( #176, #2 ) ;
#222 = PERSON_AND_ORGANIZATION ( #176, #2 ) ;
#223 = CARTESIAN_POINT ( 'NONE',  ( 4.189777606611760026E-14, -1.469576158976823947E-15, 12.00000000000000000 ) ) ;
ENDSEC;
END-ISO-10303-21;
