ISO-10303-21;
HEADER;
FILE_DESCRIPTION (( 'STEP AP203' ),
    '1' );
FILE_NAME ('55432.step',
    '2021-10-08T05:15:50',
    ( '' ),
    ( '' ),
    'SwSTEP 2.0',
    'SolidWorks 2019',
    '' );
FILE_SCHEMA (( 'CONFIG_CONTROL_DESIGN' ));
ENDSEC;

DATA;
#1 = MECHANICAL_CONTEXT ( 'NONE', #134, 'mechanical' ) ;
#2 = AXIS2_PLACEMENT_3D ( 'NONE', #95, #187, #143 ) ;
#3 = DATE_AND_TIME ( #205, #83 ) ;
#4 = CIRCLE ( 'NONE', #179, 1.000000000000000888 ) ;
#5 = ORIENTED_EDGE ( 'NONE', *, *, #106, .T. ) ;
#6 = LOCAL_TIME ( 7, 15, 50.00000000000000000, #15 ) ;
#7 =( GEOMETRIC_REPRESENTATION_CONTEXT ( 3 ) GLOBAL_UNCERTAINTY_ASSIGNED_CONTEXT ( ( #41 ) ) GLOBAL_UNIT_ASSIGNED_CONTEXT ( ( #200, #155, #97 ) ) REPRESENTATION_CONTEXT ( 'NONE', 'WORKASPACE' ) );
#8 = ORIENTED_EDGE ( 'NONE', *, *, #149, .T. ) ;
#9 = AXIS2_PLACEMENT_3D ( 'NONE', #180, #215, #198 ) ;
#10 = CONICAL_SURFACE ( 'NONE', #171, 0.9249999999999936051, 1.029744258676649649 ) ;
#11 = PLANE ( 'NONE',  #177 ) ;
#12 = DIRECTION ( 'NONE',  ( 4.275831445896957731E-31, 1.000000000000000000, 1.224646799147353454E-16 ) ) ;
#13 = DIRECTION ( 'NONE',  ( 3.491481338843133355E-15, -1.224646799147353207E-16, 1.000000000000000000 ) ) ;
#14 = CARTESIAN_POINT ( 'NONE',  ( 1.940551615686933423E-15, -6.806538812888667505E-17, 0.5557960726004954610 ) ) ;
#15 = COORDINATED_UNIVERSAL_TIME_OFFSET ( 1, 0, .AHEAD. ) ;
#16 = DATE_AND_TIME ( #190, #78 ) ;
#17 = AXIS2_PLACEMENT_3D ( 'NONE', #52, #31, #221 ) ;
#18 = APPROVAL_ROLE ( '' ) ;
#19 = CALENDAR_DATE ( 2021, 8, 10 ) ;
#20 = ORIENTED_EDGE ( 'NONE', *, *, #27, .T. ) ;
#21 = APPROVAL ( #178, 'UNSPECIFIED' ) ;
#22 = DIRECTION ( 'NONE',  ( 0.0000000000000000000, -1.000000000000000000, 0.0000000000000000000 ) ) ;
#23 = EDGE_LOOP ( 'NONE', ( #37 ) ) ;
#24 = ORIENTED_EDGE ( 'NONE', *, *, #74, .F. ) ;
#25 = AXIS2_PLACEMENT_3D ( 'NONE', #102, #183, #22 ) ;
#26 = CARTESIAN_POINT ( 'NONE',  ( 1.326762908760390423E-13, 0.7999999999999962697, 38.00000000000000000 ) ) ;
#27 = EDGE_CURVE ( 'NONE', #57, #57, #84, .T. ) ;
#28 = CARTESIAN_POINT ( 'NONE',  ( 1.940551615686933818E-15, 0.9249999999999934941, 0.5557960726004955720 ) ) ;
#29 = ADVANCED_FACE ( 'NONE', ( #90, #107 ), #124, .T. ) ;
#30 = CALENDAR_DATE ( 2021, 8, 10 ) ;
#31 = DIRECTION ( 'NONE',  ( 0.0000000000000000000, 0.0000000000000000000, 1.000000000000000000 ) ) ;
#32 = AXIS2_PLACEMENT_3D ( 'NONE', #170, #129, #92 ) ;
#33 = PERSON_AND_ORGANIZATION_ROLE ( 'creator' ) ;
#34 = EDGE_LOOP ( 'NONE', ( #40 ) ) ;
#35 = AXIS2_PLACEMENT_3D ( 'NONE', #73, #111, #12 ) ;
#36 = CIRCLE ( 'NONE', #209, 0.9249999999999936051 ) ;
#37 = ORIENTED_EDGE ( 'NONE', *, *, #149, .F. ) ;
#38 = APPLICATION_CONTEXT ( 'configuration controlled 3d designs of mechanical parts and assemblies' ) ;
#39 = EDGE_LOOP ( 'NONE', ( #8 ) ) ;
#40 = ORIENTED_EDGE ( 'NONE', *, *, #74, .T. ) ;
#41 = UNCERTAINTY_MEASURE_WITH_UNIT (LENGTH_MEASURE( 1.000000000000000082E-05 ), #200, 'distance_accuracy_value', 'NONE');
#42 = VERTEX_POINT ( 'NONE', #26 ) ;
#43 = CARTESIAN_POINT ( 'NONE',  ( 0.0000000000000000000, 0.0000000000000000000, 0.0000000000000000000 ) ) ;
#44 = FACE_OUTER_BOUND ( 'NONE', #123, .T. ) ;
#45 = DIRECTION ( 'NONE',  ( -3.491481338843133355E-15, 1.224646799147353207E-16, -1.000000000000000000 ) ) ;
#46 = CIRCLE ( 'NONE', #103, 0.8000000000000009326 ) ;
#47 = COORDINATED_UNIVERSAL_TIME_OFFSET ( 1, 0, .AHEAD. ) ;
#48 = APPROVAL_STATUS ( 'not_yet_approved' ) ;
#49 = PERSON ( 'UNSPECIFIED', 'UNSPECIFIED', 'UNSPECIFIED', ('UNSPECIFIED'), ('UNSPECIFIED'), ('UNSPECIFIED') ) ;
#50 = PERSON_AND_ORGANIZATION ( #49, #156 ) ;
#51 = EDGE_LOOP ( 'NONE', ( #140 ) ) ;
#52 = CARTESIAN_POINT ( 'NONE',  ( 0.0000000000000000000, 0.0000000000000000000, 0.0000000000000000000 ) ) ;
#53 = EDGE_LOOP ( 'NONE', ( #20 ) ) ;
#54 = CC_DESIGN_DATE_AND_TIME_ASSIGNMENT ( #116, #210, ( #99 ) ) ;
#55 = CARTESIAN_POINT ( 'NONE',  ( 4.235133279655923853E-14, 0.9999999999999954481, 12.12990381056767042 ) ) ;
#56 = DESIGN_CONTEXT ( 'detailed design', #38, 'design' ) ;
#57 = VERTEX_POINT ( 'NONE', #55 ) ;
#58 = CC_DESIGN_PERSON_AND_ORGANIZATION_ASSIGNMENT ( #67, #130, ( #184 ) ) ;
#59 = FACE_OUTER_BOUND ( 'NONE', #165, .T. ) ;
#60 = PRODUCT_DEFINITION_FORMATION_WITH_SPECIFIED_SOURCE ( 'ANY', '', #184, .NOT_KNOWN. ) ;
#61 = FACE_OUTER_BOUND ( 'NONE', #195, .T. ) ;
#62 = DIRECTION ( 'NONE',  ( 0.0000000000000000000, 1.000000000000000000, 0.0000000000000000000 ) ) ;
#63 = ADVANCED_FACE ( 'NONE', ( #88 ), #69, .F. ) ;
#64 = APPROVAL_STATUS ( 'not_yet_approved' ) ;
#65 = PERSON_AND_ORGANIZATION_ROLE ( 'design_supplier' ) ;
#66 = EDGE_LOOP ( 'NONE', ( #135 ) ) ;
#67 = PERSON_AND_ORGANIZATION ( #49, #156 ) ;
#68 = ORIENTED_EDGE ( 'NONE', *, *, #27, .F. ) ;
#69 = PLANE ( 'NONE',  #9 ) ;
#70 = FACE_OUTER_BOUND ( 'NONE', #181, .T. ) ;
#71 = CC_DESIGN_APPROVAL ( #203, ( #82 ) ) ;
#72 = VERTEX_POINT ( 'NONE', #125 ) ;
#73 = CARTESIAN_POINT ( 'NONE',  ( 0.0000000000000000000, 0.0000000000000000000, 0.0000000000000000000 ) ) ;
#74 = EDGE_CURVE ( 'NONE', #72, #72, #168, .T. ) ;
#75 = DIRECTION ( 'NONE',  ( -3.491481338843133355E-15, 1.224646799147353207E-16, -1.000000000000000000 ) ) ;
#76 = DIRECTION ( 'NONE',  ( -3.491481338843133355E-15, 1.224646799147353207E-16, -1.000000000000000000 ) ) ;
#77 = PERSON_AND_ORGANIZATION ( #49, #156 ) ;
#78 = LOCAL_TIME ( 7, 15, 50.00000000000000000, #133 ) ;
#79 = DATE_AND_TIME ( #30, #118 ) ;
#80 = PERSON_AND_ORGANIZATION ( #49, #156 ) ;
#81 = APPROVAL ( #48, 'UNSPECIFIED' ) ;
#82 = PRODUCT_DEFINITION ( 'UNKNOWN', '', #60, #56 ) ;
#83 = LOCAL_TIME ( 7, 15, 50.00000000000000000, #117 ) ;
#84 = CIRCLE ( 'NONE', #89, 0.9999999999999970024 ) ;
#85 = PRODUCT_DEFINITION_SHAPE ( 'NONE', 'NONE',  #82 ) ;
#86 = EDGE_CURVE ( 'NONE', #145, #145, #36, .T. ) ;
#87 = APPLICATION_PROTOCOL_DEFINITION ( 'international standard', 'config_control_design', 1994, #38 ) ;
#88 = FACE_OUTER_BOUND ( 'NONE', #23, .T. ) ;
#89 = AXIS2_PLACEMENT_3D ( 'NONE', #122, #196, #141 ) ;
#90 = FACE_BOUND ( 'NONE', #164, .T. ) ;
#91 = CARTESIAN_POINT ( 'NONE',  ( 1.326762908760390423E-13, -4.653657836759941941E-15, 38.00000000000000000 ) ) ;
#92 = DIRECTION ( 'NONE',  ( 0.0000000000000000000, 1.000000000000000000, 0.0000000000000000000 ) ) ;
#93 = FACE_OUTER_BOUND ( 'NONE', #163, .T. ) ;
#94 = VERTEX_POINT ( 'NONE', #202 ) ;
#95 = CARTESIAN_POINT ( 'NONE',  ( 4.189777606611760026E-14, 6.936388994811031224E-33, 12.00000000000000000 ) ) ;
#96 = CLOSED_SHELL ( 'NONE', ( #109, #154, #120 ) ) ;
#97 =( NAMED_UNIT ( * ) SI_UNIT ( $, .STERADIAN. ) SOLID_ANGLE_UNIT ( ) );
#98 = CALENDAR_DATE ( 2021, 8, 10 ) ;
#99 = SECURITY_CLASSIFICATION ( '', '', #223 ) ;
#100 = EDGE_CURVE ( 'NONE', #185, #185, #4, .T. ) ;
#101 = COORDINATED_UNIVERSAL_TIME_OFFSET ( 1, 0, .AHEAD. ) ;
#102 = CARTESIAN_POINT ( 'NONE',  ( 4.235133279655923853E-14, -1.485484787557698230E-15, 12.12990381056767042 ) ) ;
#103 = AXIS2_PLACEMENT_3D ( 'NONE', #91, #76, #217 ) ;
#104 = AXIS2_PLACEMENT_3D ( 'NONE', #43, #166, #147 ) ;
#105 = ORIENTED_EDGE ( 'NONE', *, *, #100, .T. ) ;
#106 = EDGE_CURVE ( 'NONE', #94, #94, #126, .T. ) ;
#107 = FACE_OUTER_BOUND ( 'NONE', #53, .T. ) ;
#108 = CONICAL_SURFACE ( 'NONE', #115, 0.8000000000000009326, 0.7853981633974512766 ) ;
#109 = ADVANCED_FACE ( 'NONE', ( #59 ), #10, .T. ) ;
#110 = DIRECTION ( 'NONE',  ( -4.164172852729187337E-31, -1.000000000000000000, -1.172110456741093963E-16 ) ) ;
#111 = DIRECTION ( 'NONE',  ( -3.491481338843133355E-15, 1.224646799147353207E-16, -1.000000000000000000 ) ) ;
#112 = CARTESIAN_POINT ( 'NONE',  ( 4.189777606611760026E-14, -1.469576158976823947E-15, 12.00000000000000000 ) ) ;
#113 = DIRECTION ( 'NONE',  ( 4.164172852729187337E-31, 1.000000000000000000, 1.172110456741093963E-16 ) ) ;
#114 = DIRECTION ( 'NONE',  ( 0.0000000000000000000, 1.000000000000000000, 0.0000000000000000000 ) ) ;
#115 = AXIS2_PLACEMENT_3D ( 'NONE', #167, #201, #114 ) ;
#116 = DATE_AND_TIME ( #19, #182 ) ;
#117 = COORDINATED_UNIVERSAL_TIME_OFFSET ( 1, 0, .AHEAD. ) ;
#118 = LOCAL_TIME ( 7, 15, 50.00000000000000000, #47 ) ;
#119 = APPROVAL_PERSON_ORGANIZATION ( #132, #21, #18 ) ;
#120 = ADVANCED_FACE ( 'NONE', ( #218 ), #186, .T. ) ;
#121 = CC_DESIGN_PERSON_AND_ORGANIZATION_ASSIGNMENT ( #150, #157, ( #99 ) ) ;
#122 = CARTESIAN_POINT ( 'NONE',  ( 4.235133279655923853E-14, -1.485484787557698230E-15, 12.12990381056767042 ) ) ;
#123 = EDGE_LOOP ( 'NONE', ( #105 ) ) ;
#124 = CONICAL_SURFACE ( 'NONE', #25, 0.9999999999999970024, 0.5235987755982929315 ) ;
#125 = CARTESIAN_POINT ( 'NONE',  ( 4.189777606611760026E-14, 0.9249999999999934941, 12.00000000000000000 ) ) ;
#126 = CIRCLE ( 'NONE', #197, 0.9249999999999950484 ) ;
#127 = FACE_OUTER_BOUND ( 'NONE', #51, .T. ) ;
#128 = CARTESIAN_POINT ( 'NONE',  ( 1.319779946082704535E-13, 0.9999999999999963363, 37.79999999999999716 ) ) ;
#129 = DIRECTION ( 'NONE',  ( -3.491481338843133355E-15, 1.224646799147353207E-16, -1.000000000000000000 ) ) ;
#130 = PERSON_AND_ORGANIZATION_ROLE ( 'design_owner' ) ;
#131 = SHAPE_DEFINITION_REPRESENTATION ( #85, #160 ) ;
#132 = PERSON_AND_ORGANIZATION ( #49, #156 ) ;
#133 = COORDINATED_UNIVERSAL_TIME_OFFSET ( 1, 0, .AHEAD. ) ;
#134 = APPLICATION_CONTEXT ( 'configuration controlled 3d designs of mechanical parts and assemblies' ) ;
#135 = ORIENTED_EDGE ( 'NONE', *, *, #106, .F. ) ;
#136 = APPROVAL_PERSON_ORGANIZATION ( #174, #203, #137 ) ;
#137 = APPROVAL_ROLE ( '' ) ;
#138 = CC_DESIGN_APPROVAL ( #21, ( #60 ) ) ;
#139 = ADVANCED_FACE ( 'NONE', ( #127, #172 ), #108, .T. ) ;
#140 = ORIENTED_EDGE ( 'NONE', *, *, #100, .F. ) ;
#141 = DIRECTION ( 'NONE',  ( 0.0000000000000000000, 1.000000000000000000, 0.0000000000000000000 ) ) ;
#142 = DIRECTION ( 'NONE',  ( 3.491481338843133355E-15, -1.224646799147353207E-16, 1.000000000000000000 ) ) ;
#143 = DIRECTION ( 'NONE',  ( -4.275831445896958607E-31, -1.000000000000000000, -1.224646799147353207E-16 ) ) ;
#144 = ADVANCED_FACE ( 'NONE', ( #93, #44 ), #189, .T. ) ;
#145 = VERTEX_POINT ( 'NONE', #28 ) ;
#146 = PRODUCT_RELATED_PRODUCT_CATEGORY ( 'detail', '', ( #184 ) ) ;
#147 = DIRECTION ( 'NONE',  ( 4.275831445896959482E-31, 1.000000000000000000, 1.224646799147353207E-16 ) ) ;
#148 = CARTESIAN_POINT ( 'NONE',  ( 4.189777606611760026E-14, 6.936388994811031224E-33, 12.00000000000000000 ) ) ;
#149 = EDGE_CURVE ( 'NONE', #42, #42, #46, .T. ) ;
#150 = PERSON_AND_ORGANIZATION ( #49, #156 ) ;
#151 = MANIFOLD_SOLID_BREP ( 'Corps-Déplacer/Copier1[1]', #161 ) ;
#152 = CC_DESIGN_PERSON_AND_ORGANIZATION_ASSIGNMENT ( #192, #213, ( #60 ) ) ;
#153 = MANIFOLD_SOLID_BREP ( 'Corps-Déplacer/Copier1[2]', #96 ) ;
#154 = ADVANCED_FACE ( 'NONE', ( #70, #61 ), #199, .T. ) ;
#155 =( NAMED_UNIT ( * ) PLANE_ANGLE_UNIT ( ) SI_UNIT ( $, .RADIAN. ) );
#156 = ORGANIZATION ( 'UNSPECIFIED', 'UNSPECIFIED', '' ) ;
#157 = PERSON_AND_ORGANIZATION_ROLE ( 'classification_officer' ) ;
#158 = APPLICATION_PROTOCOL_DEFINITION ( 'international standard', 'config_control_design', 1994, #134 ) ;
#159 = APPROVAL_PERSON_ORGANIZATION ( #80, #81, #207 ) ;
#160 = ADVANCED_BREP_SHAPE_REPRESENTATION ( '55432', ( #151, #153, #17 ), #7 ) ;
#161 = CLOSED_SHELL ( 'NONE', ( #176, #29, #144, #139, #63 ) ) ;
#162 = APPROVAL_DATE_TIME ( #79, #203 ) ;
#163 = EDGE_LOOP ( 'NONE', ( #68 ) ) ;
#164 = EDGE_LOOP ( 'NONE', ( #24 ) ) ;
#165 = EDGE_LOOP ( 'NONE', ( #211 ) ) ;
#166 = DIRECTION ( 'NONE',  ( -3.491481338843133355E-15, 1.224646799147353207E-16, -1.000000000000000000 ) ) ;
#167 = CARTESIAN_POINT ( 'NONE',  ( 1.326762908760390423E-13, -4.653657836759941941E-15, 38.00000000000000000 ) ) ;
#168 = CIRCLE ( 'NONE', #32, 0.9249999999999950484 ) ;
#169 = FACE_OUTER_BOUND ( 'NONE', #34, .T. ) ;
#170 = CARTESIAN_POINT ( 'NONE',  ( 4.189777606611760026E-14, -1.469576158976823947E-15, 12.00000000000000000 ) ) ;
#171 = AXIS2_PLACEMENT_3D ( 'NONE', #220, #13, #110 ) ;
#172 = FACE_BOUND ( 'NONE', #39, .T. ) ;
#173 = CC_DESIGN_DATE_AND_TIME_ASSIGNMENT ( #194, #191, ( #82 ) ) ;
#174 = PERSON_AND_ORGANIZATION ( #49, #156 ) ;
#175 = APPROVAL_DATE_TIME ( #3, #21 ) ;
#176 = ADVANCED_FACE ( 'NONE', ( #169 ), #11, .F. ) ;
#177 = AXIS2_PLACEMENT_3D ( 'NONE', #148, #142, #216 ) ;
#178 = APPROVAL_STATUS ( 'not_yet_approved' ) ;
#179 = AXIS2_PLACEMENT_3D ( 'NONE', #188, #45, #219 ) ;
#180 = CARTESIAN_POINT ( 'NONE',  ( 1.326762908760390423E-13, 5.999039130647367482E-33, 38.00000000000000000 ) ) ;
#181 = EDGE_LOOP ( 'NONE', ( #214 ) ) ;
#182 = LOCAL_TIME ( 7, 15, 50.00000000000000000, #101 ) ;
#183 = DIRECTION ( 'NONE',  ( 3.491481338843133355E-15, -1.224646799147353207E-16, 1.000000000000000000 ) ) ;
#184 = PRODUCT ( '55432', '55432', '', ( #1 ) ) ;
#185 = VERTEX_POINT ( 'NONE', #128 ) ;
#186 = PLANE ( 'NONE',  #2 ) ;
#187 = DIRECTION ( 'NONE',  ( 3.491481338843133355E-15, -1.224646799147353207E-16, 1.000000000000000000 ) ) ;
#188 = CARTESIAN_POINT ( 'NONE',  ( 1.319779946082704535E-13, -4.629164900776995227E-15, 37.79999999999999716 ) ) ;
#189 = CYLINDRICAL_SURFACE ( 'NONE', #35, 0.9999999999999988898 ) ;
#190 = CALENDAR_DATE ( 2021, 8, 10 ) ;
#191 = DATE_TIME_ROLE ( 'creation_date' ) ;
#192 = PERSON_AND_ORGANIZATION ( #49, #156 ) ;
#193 = CC_DESIGN_PERSON_AND_ORGANIZATION_ASSIGNMENT ( #50, #33, ( #82 ) ) ;
#194 = DATE_AND_TIME ( #98, #6 ) ;
#195 = EDGE_LOOP ( 'NONE', ( #5 ) ) ;
#196 = DIRECTION ( 'NONE',  ( -3.491481338843133355E-15, 1.224646799147353207E-16, -1.000000000000000000 ) ) ;
#197 = AXIS2_PLACEMENT_3D ( 'NONE', #112, #75, #62 ) ;
#198 = DIRECTION ( 'NONE',  ( 4.275831445896958607E-31, 1.000000000000000000, 1.224646799147353207E-16 ) ) ;
#199 = CYLINDRICAL_SURFACE ( 'NONE', #104, 0.9249999999999943823 ) ;
#200 =( LENGTH_UNIT ( ) NAMED_UNIT ( * ) SI_UNIT ( .MILLI., .METRE. ) );
#201 = DIRECTION ( 'NONE',  ( -3.491481338843133355E-15, 1.224646799147353207E-16, -1.000000000000000000 ) ) ;
#202 = CARTESIAN_POINT ( 'NONE',  ( 4.189777606611760026E-14, 0.9249999999999934941, 12.00000000000000000 ) ) ;
#203 = APPROVAL ( #64, 'UNSPECIFIED' ) ;
#204 = DIRECTION ( 'NONE',  ( -3.491481338843133355E-15, 1.224646799147353207E-16, -1.000000000000000000 ) ) ;
#205 = CALENDAR_DATE ( 2021, 8, 10 ) ;
#206 = CC_DESIGN_PERSON_AND_ORGANIZATION_ASSIGNMENT ( #77, #65, ( #60 ) ) ;
#207 = APPROVAL_ROLE ( '' ) ;
#208 = CC_DESIGN_APPROVAL ( #81, ( #99 ) ) ;
#209 = AXIS2_PLACEMENT_3D ( 'NONE', #14, #204, #113 ) ;
#210 = DATE_TIME_ROLE ( 'classification_date' ) ;
#211 = ORIENTED_EDGE ( 'NONE', *, *, #86, .T. ) ;
#212 = CC_DESIGN_SECURITY_CLASSIFICATION ( #99, ( #60 ) ) ;
#213 = PERSON_AND_ORGANIZATION_ROLE ( 'creator' ) ;
#214 = ORIENTED_EDGE ( 'NONE', *, *, #86, .F. ) ;
#215 = DIRECTION ( 'NONE',  ( -3.491481338843133355E-15, 1.224646799147353207E-16, -1.000000000000000000 ) ) ;
#216 = DIRECTION ( 'NONE',  ( -4.275831445896958607E-31, -1.000000000000000000, -1.224646799147353207E-16 ) ) ;
#217 = DIRECTION ( 'NONE',  ( 0.0000000000000000000, 1.000000000000000000, 0.0000000000000000000 ) ) ;
#218 = FACE_OUTER_BOUND ( 'NONE', #66, .T. ) ;
#219 = DIRECTION ( 'NONE',  ( 0.0000000000000000000, 1.000000000000000000, 0.0000000000000000000 ) ) ;
#220 = CARTESIAN_POINT ( 'NONE',  ( 1.940551615686933423E-15, -6.806538812888667505E-17, 0.5557960726004954610 ) ) ;
#221 = DIRECTION ( 'NONE',  ( 1.000000000000000000, 0.0000000000000000000, 0.0000000000000000000 ) ) ;
#222 = APPROVAL_DATE_TIME ( #16, #81 ) ;
#223 = SECURITY_CLASSIFICATION_LEVEL ( 'unclassified' ) ;
ENDSEC;
END-ISO-10303-21;
