ISO-10303-21;
HEADER;
FILE_DESCRIPTION (( 'STEP AP203' ),
    '1' );
FILE_NAME ('55431.step',
    '2021-10-08T05:15:49',
    ( '' ),
    ( '' ),
    'SwSTEP 2.0',
    'SolidWorks 2019',
    '' );
FILE_SCHEMA (( 'CONFIG_CONTROL_DESIGN' ));
ENDSEC;

DATA;
#1 = DIRECTION ( 'NONE',  ( 3.491481338843133355E-15, -1.224646799147353207E-16, 1.000000000000000000 ) ) ;
#2 = APPROVAL_PERSON_ORGANIZATION ( #48, #162, #133 ) ;
#3 = ORIENTED_EDGE ( 'NONE', *, *, #31, .F. ) ;
#4 = VERTEX_POINT ( 'NONE', #15 ) ;
#5 = AXIS2_PLACEMENT_3D ( 'NONE', #190, #1, #146 ) ;
#6 = EDGE_LOOP ( 'NONE', ( #112 ) ) ;
#7 = ORIENTED_EDGE ( 'NONE', *, *, #136, .F. ) ;
#8 = AXIS2_PLACEMENT_3D ( 'NONE', #155, #120, #218 ) ;
#9 = CARTESIAN_POINT ( 'NONE',  ( 0.0000000000000000000, 0.0000000000000000000, 0.0000000000000000000 ) ) ;
#10 = CARTESIAN_POINT ( 'NONE',  ( 1.326762908760390423E-13, -4.653657836759941941E-15, 38.00000000000000000 ) ) ;
#11 = ADVANCED_FACE ( 'NONE', ( #21, #57 ), #185, .T. ) ;
#12 = FACE_OUTER_BOUND ( 'NONE', #37, .T. ) ;
#13 = CYLINDRICAL_SURFACE ( 'NONE', #166, 0.9999999999999988898 ) ;
#14 =( NAMED_UNIT ( * ) SI_UNIT ( $, .STERADIAN. ) SOLID_ANGLE_UNIT ( ) );
#15 = CARTESIAN_POINT ( 'NONE',  ( 1.326762908760390423E-13, 0.7999999999999962697, 38.00000000000000000 ) ) ;
#16 = APPLICATION_PROTOCOL_DEFINITION ( 'international standard', 'config_control_design', 1994, #195 ) ;
#17 = AXIS2_PLACEMENT_3D ( 'NONE', #10, #95, #173 ) ;
#18 = APPROVAL_ROLE ( '' ) ;
#19 = EDGE_LOOP ( 'NONE', ( #39 ) ) ;
#20 = DATE_AND_TIME ( #189, #123 ) ;
#21 = FACE_BOUND ( 'NONE', #56, .T. ) ;
#22 = COORDINATED_UNIVERSAL_TIME_OFFSET ( 1, 0, .AHEAD. ) ;
#23 = DIRECTION ( 'NONE',  ( -3.491481338843133355E-15, 1.224646799147353207E-16, -1.000000000000000000 ) ) ;
#24 = AXIS2_PLACEMENT_3D ( 'NONE', #26, #221, #207 ) ;
#25 = FACE_OUTER_BOUND ( 'NONE', #215, .T. ) ;
#26 = CARTESIAN_POINT ( 'NONE',  ( 4.189777606611760026E-14, -1.469576158976823947E-15, 12.00000000000000000 ) ) ;
#27 = DIRECTION ( 'NONE',  ( -3.491481338843133355E-15, 1.224646799147353207E-16, -1.000000000000000000 ) ) ;
#28 = MECHANICAL_CONTEXT ( 'NONE', #183, 'mechanical' ) ;
#29 = PERSON_AND_ORGANIZATION ( #68, #91 ) ;
#30 = CALENDAR_DATE ( 2021, 8, 10 ) ;
#31 = EDGE_CURVE ( 'NONE', #45, #45, #210, .T. ) ;
#32 = PERSON_AND_ORGANIZATION ( #68, #91 ) ;
#33 = AXIS2_PLACEMENT_3D ( 'NONE', #116, #202, #134 ) ;
#34 = AXIS2_PLACEMENT_3D ( 'NONE', #62, #204, #42 ) ;
#35 = DATE_AND_TIME ( #30, #152 ) ;
#36 = AXIS2_PLACEMENT_3D ( 'NONE', #99, #174, #132 ) ;
#37 = EDGE_LOOP ( 'NONE', ( #3 ) ) ;
#38 = CONICAL_SURFACE ( 'NONE', #17, 0.8000000000000009326, 0.7853981633974512766 ) ;
#39 = ORIENTED_EDGE ( 'NONE', *, *, #128, .T. ) ;
#40 = UNCERTAINTY_MEASURE_WITH_UNIT (LENGTH_MEASURE( 1.000000000000000082E-05 ), #124, 'distance_accuracy_value', 'NONE');
#41 = VERTEX_POINT ( 'NONE', #84 ) ;
#42 = DIRECTION ( 'NONE',  ( 0.0000000000000000000, 1.000000000000000000, 0.0000000000000000000 ) ) ;
#43 = CARTESIAN_POINT ( 'NONE',  ( 4.189777606611760026E-14, -1.469576158976823947E-15, 12.00000000000000000 ) ) ;
#44 = LOCAL_TIME ( 7, 15, 49.00000000000000000, #177 ) ;
#45 = VERTEX_POINT ( 'NONE', #176 ) ;
#46 = FACE_OUTER_BOUND ( 'NONE', #151, .T. ) ;
#47 = CIRCLE ( 'NONE', #36, 1.000000000000000888 ) ;
#48 = PERSON_AND_ORGANIZATION ( #68, #91 ) ;
#49 = DIRECTION ( 'NONE',  ( 0.0000000000000000000, 0.0000000000000000000, 1.000000000000000000 ) ) ;
#50 = DATE_AND_TIME ( #142, #126 ) ;
#51 = ADVANCED_FACE ( 'NONE', ( #12, #83 ), #193, .T. ) ;
#52 =( NAMED_UNIT ( * ) PLANE_ANGLE_UNIT ( ) SI_UNIT ( $, .RADIAN. ) );
#53 = ORIENTED_EDGE ( 'NONE', *, *, #96, .T. ) ;
#54 = COORDINATED_UNIVERSAL_TIME_OFFSET ( 1, 0, .AHEAD. ) ;
#55 = CC_DESIGN_PERSON_AND_ORGANIZATION_ASSIGNMENT ( #67, #186, ( #187 ) ) ;
#56 = EDGE_LOOP ( 'NONE', ( #191 ) ) ;
#57 = FACE_OUTER_BOUND ( 'NONE', #214, .T. ) ;
#58 = ADVANCED_FACE ( 'NONE', ( #117 ), #90, .T. ) ;
#59 = EDGE_LOOP ( 'NONE', ( #53 ) ) ;
#60 = CC_DESIGN_DATE_AND_TIME_ASSIGNMENT ( #35, #222, ( #211 ) ) ;
#61 = DIRECTION ( 'NONE',  ( 0.0000000000000000000, 1.000000000000000000, 0.0000000000000000000 ) ) ;
#62 = CARTESIAN_POINT ( 'NONE',  ( 4.238156991192201358E-14, -1.486545362796423077E-15, 12.13856406460551618 ) ) ;
#63 = DIRECTION ( 'NONE',  ( 4.186804226928802724E-31, 1.000000000000000000, 1.178480622266860845E-16 ) ) ;
#64 = APPROVAL_PERSON_ORGANIZATION ( #127, #205, #70 ) ;
#65 = DIRECTION ( 'NONE',  ( 4.275831445896958607E-31, 1.000000000000000000, 1.224646799147353454E-16 ) ) ;
#66 = PERSON_AND_ORGANIZATION ( #68, #91 ) ;
#67 = PERSON_AND_ORGANIZATION ( #68, #91 ) ;
#68 = PERSON ( 'UNSPECIFIED', 'UNSPECIFIED', 'UNSPECIFIED', ('UNSPECIFIED'), ('UNSPECIFIED'), ('UNSPECIFIED') ) ;
#69 = APPROVAL_DATE_TIME ( #50, #205 ) ;
#70 = APPROVAL_ROLE ( '' ) ;
#71 = ORIENTED_EDGE ( 'NONE', *, *, #128, .F. ) ;
#72 = ORIENTED_EDGE ( 'NONE', *, *, #165, .F. ) ;
#73 = APPROVAL_STATUS ( 'not_yet_approved' ) ;
#74 = AXIS2_PLACEMENT_3D ( 'NONE', #125, #49, #163 ) ;
#75 = ADVANCED_FACE ( 'NONE', ( #114, #170 ), #13, .T. ) ;
#76 = CC_DESIGN_APPROVAL ( #162, ( #167 ) ) ;
#77 = ORIENTED_EDGE ( 'NONE', *, *, #180, .F. ) ;
#78 = MANIFOLD_SOLID_BREP ( 'Corps-Déplacer/Copier1[2]', #80 ) ;
#79 = PLANE ( 'NONE',  #181 ) ;
#80 = CLOSED_SHELL ( 'NONE', ( #58, #51, #110 ) ) ;
#81 = DIRECTION ( 'NONE',  ( -4.275831445896958607E-31, -1.000000000000000000, -1.224646799147353207E-16 ) ) ;
#82 = FACE_OUTER_BOUND ( 'NONE', #201, .T. ) ;
#83 = FACE_OUTER_BOUND ( 'NONE', #19, .T. ) ;
#84 = CARTESIAN_POINT ( 'NONE',  ( 4.189777606611760026E-14, 0.9199999999999937117, 12.00000000000000000 ) ) ;
#85 = CARTESIAN_POINT ( 'NONE',  ( 1.319779946082704535E-13, 0.9999999999999963363, 37.79999999999999716 ) ) ;
#86 = CC_DESIGN_APPROVAL ( #205, ( #211 ) ) ;
#87 = AXIS2_PLACEMENT_3D ( 'NONE', #43, #23, #208 ) ;
#88 = PERSON_AND_ORGANIZATION ( #68, #91 ) ;
#89 = EDGE_LOOP ( 'NONE', ( #169 ) ) ;
#90 = CONICAL_SURFACE ( 'NONE', #33, 0.9199999999999936007, 1.029744258676649871 ) ;
#91 = ORGANIZATION ( 'UNSPECIFIED', 'UNSPECIFIED', '' ) ;
#92 = CARTESIAN_POINT ( 'NONE',  ( 4.238156991192201358E-14, 0.9999999999999954481, 12.13856406460551618 ) ) ;
#93 = DESIGN_CONTEXT ( 'detailed design', #195, 'design' ) ;
#94 = CARTESIAN_POINT ( 'NONE',  ( 4.189777606611760026E-14, 6.898895000244487247E-33, 12.00000000000000000 ) ) ;
#95 = DIRECTION ( 'NONE',  ( -3.491481338843133355E-15, 1.224646799147353207E-16, -1.000000000000000000 ) ) ;
#96 = EDGE_CURVE ( 'NONE', #41, #41, #100, .T. ) ;
#97 = CC_DESIGN_SECURITY_CLASSIFICATION ( #167, ( #200 ) ) ;
#98 = CARTESIAN_POINT ( 'NONE',  ( 1.326762908760390423E-13, -4.653657836759941941E-15, 38.00000000000000000 ) ) ;
#99 = CARTESIAN_POINT ( 'NONE',  ( 1.319779946082704535E-13, -4.629164900776995227E-15, 37.79999999999999716 ) ) ;
#100 = CIRCLE ( 'NONE', #87, 0.9199999999999952660 ) ;
#101 = COORDINATED_UNIVERSAL_TIME_OFFSET ( 1, 0, .AHEAD. ) ;
#102 = CC_DESIGN_PERSON_AND_ORGANIZATION_ASSIGNMENT ( #29, #161, ( #211 ) ) ;
#103 = APPROVAL_PERSON_ORGANIZATION ( #66, #212, #18 ) ;
#104 = CC_DESIGN_DATE_AND_TIME_ASSIGNMENT ( #213, #130, ( #167 ) ) ;
#105 = PERSON_AND_ORGANIZATION_ROLE ( 'classification_officer' ) ;
#106 = APPROVAL_DATE_TIME ( #148, #212 ) ;
#107 =( GEOMETRIC_REPRESENTATION_CONTEXT ( 3 ) GLOBAL_UNCERTAINTY_ASSIGNED_CONTEXT ( ( #40 ) ) GLOBAL_UNIT_ASSIGNED_CONTEXT ( ( #124, #52, #14 ) ) REPRESENTATION_CONTEXT ( 'NONE', 'WORKASPACE' ) );
#108 = ORIENTED_EDGE ( 'NONE', *, *, #136, .T. ) ;
#109 = ORIENTED_EDGE ( 'NONE', *, *, #165, .T. ) ;
#110 = ADVANCED_FACE ( 'NONE', ( #46 ), #79, .T. ) ;
#111 = CIRCLE ( 'NONE', #121, 0.8000000000000009326 ) ;
#112 = ORIENTED_EDGE ( 'NONE', *, *, #31, .T. ) ;
#113 = PRODUCT_RELATED_PRODUCT_CATEGORY ( 'detail', '', ( #187 ) ) ;
#114 = FACE_OUTER_BOUND ( 'NONE', #153, .T. ) ;
#115 = APPROVAL_DATE_TIME ( #20, #162 ) ;
#116 = CARTESIAN_POINT ( 'NONE',  ( 1.930062147494030746E-15, -6.769746711197374998E-17, 0.5527917695053574665 ) ) ;
#117 = FACE_OUTER_BOUND ( 'NONE', #6, .T. ) ;
#118 = ADVANCED_FACE ( 'NONE', ( #154 ), #194, .F. ) ;
#119 = PLANE ( 'NONE',  #175 ) ;
#120 = DIRECTION ( 'NONE',  ( 3.491481338843133355E-15, -1.224646799147353207E-16, 1.000000000000000000 ) ) ;
#121 = AXIS2_PLACEMENT_3D ( 'NONE', #98, #217, #61 ) ;
#122 = APPROVAL_STATUS ( 'not_yet_approved' ) ;
#123 = LOCAL_TIME ( 7, 15, 49.00000000000000000, #22 ) ;
#124 =( LENGTH_UNIT ( ) NAMED_UNIT ( * ) SI_UNIT ( .MILLI., .METRE. ) );
#125 = CARTESIAN_POINT ( 'NONE',  ( 0.0000000000000000000, 0.0000000000000000000, 0.0000000000000000000 ) ) ;
#126 = LOCAL_TIME ( 7, 15, 49.00000000000000000, #54 ) ;
#127 = PERSON_AND_ORGANIZATION ( #68, #91 ) ;
#128 = EDGE_CURVE ( 'NONE', #192, #192, #131, .T. ) ;
#129 = ADVANCED_BREP_SHAPE_REPRESENTATION ( '55431', ( #156, #78, #74 ), #107 ) ;
#130 = DATE_TIME_ROLE ( 'classification_date' ) ;
#131 = CIRCLE ( 'NONE', #24, 0.9199999999999952660 ) ;
#132 = DIRECTION ( 'NONE',  ( 0.0000000000000000000, 1.000000000000000000, 0.0000000000000000000 ) ) ;
#133 = APPROVAL_ROLE ( '' ) ;
#134 = DIRECTION ( 'NONE',  ( -4.186804226928802724E-31, -1.000000000000000000, -1.178480622266860845E-16 ) ) ;
#135 = AXIS2_PLACEMENT_3D ( 'NONE', #140, #220, #63 ) ;
#136 = EDGE_CURVE ( 'NONE', #160, #160, #172, .T. ) ;
#137 = FACE_BOUND ( 'NONE', #216, .T. ) ;
#138 = DIRECTION ( 'NONE',  ( 4.275831445896957731E-31, 1.000000000000000000, 1.224646799147353454E-16 ) ) ;
#139 = CC_DESIGN_APPROVAL ( #212, ( #200 ) ) ;
#140 = CARTESIAN_POINT ( 'NONE',  ( 1.930062147494030746E-15, -6.769746711197374998E-17, 0.5527917695053574665 ) ) ;
#141 = CALENDAR_DATE ( 2021, 8, 10 ) ;
#142 = CALENDAR_DATE ( 2021, 8, 10 ) ;
#143 = APPLICATION_PROTOCOL_DEFINITION ( 'international standard', 'config_control_design', 1994, #183 ) ;
#144 = VERTEX_POINT ( 'NONE', #85 ) ;
#145 = ADVANCED_FACE ( 'NONE', ( #25, #137 ), #38, .T. ) ;
#146 = DIRECTION ( 'NONE',  ( 0.0000000000000000000, -1.000000000000000000, 0.0000000000000000000 ) ) ;
#147 = CLOSED_SHELL ( 'NONE', ( #118, #11, #75, #145, #158 ) ) ;
#148 = DATE_AND_TIME ( #141, #44 ) ;
#149 = AXIS2_PLACEMENT_3D ( 'NONE', #159, #27, #65 ) ;
#150 = CC_DESIGN_PERSON_AND_ORGANIZATION_ASSIGNMENT ( #32, #105, ( #167 ) ) ;
#151 = EDGE_LOOP ( 'NONE', ( #71 ) ) ;
#152 = LOCAL_TIME ( 7, 15, 49.00000000000000000, #198 ) ;
#153 = EDGE_LOOP ( 'NONE', ( #7 ) ) ;
#154 = FACE_OUTER_BOUND ( 'NONE', #59, .T. ) ;
#155 = CARTESIAN_POINT ( 'NONE',  ( 4.189777606611760026E-14, 6.898895000244487247E-33, 12.00000000000000000 ) ) ;
#156 = MANIFOLD_SOLID_BREP ( 'Corps-Déplacer/Copier1[1]', #147 ) ;
#157 = DIRECTION ( 'NONE',  ( 4.275831445896958607E-31, 1.000000000000000000, 1.224646799147353207E-16 ) ) ;
#158 = ADVANCED_FACE ( 'NONE', ( #82 ), #119, .F. ) ;
#159 = CARTESIAN_POINT ( 'NONE',  ( 0.0000000000000000000, 0.0000000000000000000, 0.0000000000000000000 ) ) ;
#160 = VERTEX_POINT ( 'NONE', #92 ) ;
#161 = PERSON_AND_ORGANIZATION_ROLE ( 'creator' ) ;
#162 = APPROVAL ( #122, 'UNSPECIFIED' ) ;
#163 = DIRECTION ( 'NONE',  ( 1.000000000000000000, 0.0000000000000000000, 0.0000000000000000000 ) ) ;
#164 = CC_DESIGN_PERSON_AND_ORGANIZATION_ASSIGNMENT ( #223, #209, ( #200 ) ) ;
#165 = EDGE_CURVE ( 'NONE', #4, #4, #111, .T. ) ;
#166 = AXIS2_PLACEMENT_3D ( 'NONE', #9, #219, #138 ) ;
#167 = SECURITY_CLASSIFICATION ( '', '', #168 ) ;
#168 = SECURITY_CLASSIFICATION_LEVEL ( 'unclassified' ) ;
#169 = ORIENTED_EDGE ( 'NONE', *, *, #180, .T. ) ;
#170 = FACE_OUTER_BOUND ( 'NONE', #89, .T. ) ;
#171 = DIRECTION ( 'NONE',  ( 3.491481338843133355E-15, -1.224646799147353207E-16, 1.000000000000000000 ) ) ;
#172 = CIRCLE ( 'NONE', #34, 0.9999999999999970024 ) ;
#173 = DIRECTION ( 'NONE',  ( 0.0000000000000000000, 1.000000000000000000, 0.0000000000000000000 ) ) ;
#174 = DIRECTION ( 'NONE',  ( -3.491481338843133355E-15, 1.224646799147353207E-16, -1.000000000000000000 ) ) ;
#175 = AXIS2_PLACEMENT_3D ( 'NONE', #206, #196, #157 ) ;
#176 = CARTESIAN_POINT ( 'NONE',  ( 1.930062147494031140E-15, 0.9199999999999934897, 0.5527917695053575775 ) ) ;
#177 = COORDINATED_UNIVERSAL_TIME_OFFSET ( 1, 0, .AHEAD. ) ;
#178 = PERSON_AND_ORGANIZATION_ROLE ( 'creator' ) ;
#179 = CC_DESIGN_PERSON_AND_ORGANIZATION_ASSIGNMENT ( #88, #178, ( #200 ) ) ;
#180 = EDGE_CURVE ( 'NONE', #144, #144, #47, .T. ) ;
#181 = AXIS2_PLACEMENT_3D ( 'NONE', #94, #171, #81 ) ;
#182 = CALENDAR_DATE ( 2021, 8, 10 ) ;
#183 = APPLICATION_CONTEXT ( 'configuration controlled 3d designs of mechanical parts and assemblies' ) ;
#184 = LOCAL_TIME ( 7, 15, 49.00000000000000000, #101 ) ;
#185 = CONICAL_SURFACE ( 'NONE', #5, 0.9999999999999970024, 0.5235987755982897118 ) ;
#186 = PERSON_AND_ORGANIZATION_ROLE ( 'design_owner' ) ;
#187 = PRODUCT ( '55431', '55431', '', ( #28 ) ) ;
#188 = PRODUCT_DEFINITION_SHAPE ( 'NONE', 'NONE',  #211 ) ;
#189 = CALENDAR_DATE ( 2021, 8, 10 ) ;
#190 = CARTESIAN_POINT ( 'NONE',  ( 4.238156991192201358E-14, -1.486545362796423077E-15, 12.13856406460551618 ) ) ;
#191 = ORIENTED_EDGE ( 'NONE', *, *, #96, .F. ) ;
#192 = VERTEX_POINT ( 'NONE', #197 ) ;
#193 = CYLINDRICAL_SURFACE ( 'NONE', #149, 0.9199999999999943778 ) ;
#194 = PLANE ( 'NONE',  #8 ) ;
#195 = APPLICATION_CONTEXT ( 'configuration controlled 3d designs of mechanical parts and assemblies' ) ;
#196 = DIRECTION ( 'NONE',  ( -3.491481338843133355E-15, 1.224646799147353207E-16, -1.000000000000000000 ) ) ;
#197 = CARTESIAN_POINT ( 'NONE',  ( 4.189777606611760026E-14, 0.9199999999999937117, 12.00000000000000000 ) ) ;
#198 = COORDINATED_UNIVERSAL_TIME_OFFSET ( 1, 0, .AHEAD. ) ;
#199 = APPROVAL_STATUS ( 'not_yet_approved' ) ;
#200 = PRODUCT_DEFINITION_FORMATION_WITH_SPECIFIED_SOURCE ( 'ANY', '', #187, .NOT_KNOWN. ) ;
#201 = EDGE_LOOP ( 'NONE', ( #72 ) ) ;
#202 = DIRECTION ( 'NONE',  ( 3.491481338843133355E-15, -1.224646799147353207E-16, 1.000000000000000000 ) ) ;
#203 = SHAPE_DEFINITION_REPRESENTATION ( #188, #129 ) ;
#204 = DIRECTION ( 'NONE',  ( -3.491481338843133355E-15, 1.224646799147353207E-16, -1.000000000000000000 ) ) ;
#205 = APPROVAL ( #199, 'UNSPECIFIED' ) ;
#206 = CARTESIAN_POINT ( 'NONE',  ( 1.326762908760390423E-13, 5.999039130647367482E-33, 38.00000000000000000 ) ) ;
#207 = DIRECTION ( 'NONE',  ( 0.0000000000000000000, 1.000000000000000000, 0.0000000000000000000 ) ) ;
#208 = DIRECTION ( 'NONE',  ( 0.0000000000000000000, 1.000000000000000000, 0.0000000000000000000 ) ) ;
#209 = PERSON_AND_ORGANIZATION_ROLE ( 'design_supplier' ) ;
#210 = CIRCLE ( 'NONE', #135, 0.9199999999999936007 ) ;
#211 = PRODUCT_DEFINITION ( 'UNKNOWN', '', #200, #93 ) ;
#212 = APPROVAL ( #73, 'UNSPECIFIED' ) ;
#213 = DATE_AND_TIME ( #182, #184 ) ;
#214 = EDGE_LOOP ( 'NONE', ( #108 ) ) ;
#215 = EDGE_LOOP ( 'NONE', ( #77 ) ) ;
#216 = EDGE_LOOP ( 'NONE', ( #109 ) ) ;
#217 = DIRECTION ( 'NONE',  ( -3.491481338843133355E-15, 1.224646799147353207E-16, -1.000000000000000000 ) ) ;
#218 = DIRECTION ( 'NONE',  ( -4.275831445896958607E-31, -1.000000000000000000, -1.224646799147353207E-16 ) ) ;
#219 = DIRECTION ( 'NONE',  ( -3.491481338843133355E-15, 1.224646799147353207E-16, -1.000000000000000000 ) ) ;
#220 = DIRECTION ( 'NONE',  ( -3.491481338843133355E-15, 1.224646799147353207E-16, -1.000000000000000000 ) ) ;
#221 = DIRECTION ( 'NONE',  ( -3.491481338843133355E-15, 1.224646799147353207E-16, -1.000000000000000000 ) ) ;
#222 = DATE_TIME_ROLE ( 'creation_date' ) ;
#223 = PERSON_AND_ORGANIZATION ( #68, #91 ) ;
ENDSEC;
END-ISO-10303-21;
