ISO-10303-21;
HEADER;
FILE_DESCRIPTION (( 'STEP AP203' ),
    '1' );
FILE_NAME ('55430.step',
    '2021-10-08T05:15:49',
    ( '' ),
    ( '' ),
    'SwSTEP 2.0',
    'SolidWorks 2019',
    '' );
FILE_SCHEMA (( 'CONFIG_CONTROL_DESIGN' ));
ENDSEC;

DATA;
#1 = CYLINDRICAL_SURFACE ( 'NONE', #86, 0.9999999999999988898 ) ;
#2 = EDGE_LOOP ( 'NONE', ( #182 ) ) ;
#3 = ORIENTED_EDGE ( 'NONE', *, *, #177, .T. ) ;
#4 = DIRECTION ( 'NONE',  ( -3.491481338843133355E-15, 1.224646799147353207E-16, -1.000000000000000000 ) ) ;
#5 = ORIENTED_EDGE ( 'NONE', *, *, #18, .F. ) ;
#6 = VERTEX_POINT ( 'NONE', #193 ) ;
#7 = APPROVAL_ROLE ( '' ) ;
#8 = LOCAL_TIME ( 7, 15, 49.00000000000000000, #219 ) ;
#9 = PERSON_AND_ORGANIZATION ( #76, #56 ) ;
#10 = ORIENTED_EDGE ( 'NONE', *, *, #180, .T. ) ;
#11 = DIRECTION ( 'NONE',  ( 4.275831445896958607E-31, 1.000000000000000000, 1.224646799147353207E-16 ) ) ;
#12 = EDGE_LOOP ( 'NONE', ( #206 ) ) ;
#13 = DIRECTION ( 'NONE',  ( -3.491481338843133355E-15, 1.224646799147353207E-16, -1.000000000000000000 ) ) ;
#14 = FACE_OUTER_BOUND ( 'NONE', #50, .T. ) ;
#15 = DIRECTION ( 'NONE',  ( -4.275831445896958607E-31, -1.000000000000000000, -1.224646799147353207E-16 ) ) ;
#16 = EDGE_LOOP ( 'NONE', ( #198 ) ) ;
#17 = APPROVAL_DATE_TIME ( #156, #85 ) ;
#18 = EDGE_CURVE ( 'NONE', #194, #194, #145, .T. ) ;
#19 = CARTESIAN_POINT ( 'NONE',  ( 0.0000000000000000000, 0.0000000000000000000, 0.0000000000000000000 ) ) ;
#20 = AXIS2_PLACEMENT_3D ( 'NONE', #58, #33, #15 ) ;
#21 = CARTESIAN_POINT ( 'NONE',  ( 1.319779946082704535E-13, 0.9999999999999963363, 37.79999999999999716 ) ) ;
#22 = AXIS2_PLACEMENT_3D ( 'NONE', #108, #139, #107 ) ;
#23 = AXIS2_PLACEMENT_3D ( 'NONE', #119, #189, #45 ) ;
#24 = CALENDAR_DATE ( 2021, 8, 10 ) ;
#25 = APPROVAL ( #174, 'UNSPECIFIED' ) ;
#26 = CONICAL_SURFACE ( 'NONE', #105, 0.9099999999999935918, 1.029744258676649871 ) ;
#27 = CIRCLE ( 'NONE', #111, 0.9099999999999939249 ) ;
#28 = FACE_OUTER_BOUND ( 'NONE', #150, .T. ) ;
#29 = EDGE_CURVE ( 'NONE', #6, #6, #222, .T. ) ;
#30 = CIRCLE ( 'NONE', #23, 0.8000000000000009326 ) ;
#31 = ORIENTED_EDGE ( 'NONE', *, *, #160, .F. ) ;
#32 = DIRECTION ( 'NONE',  ( -3.491481338843133355E-15, 1.224646799147353207E-16, -1.000000000000000000 ) ) ;
#33 = DIRECTION ( 'NONE',  ( 3.491481338843133355E-15, -1.224646799147353207E-16, 1.000000000000000000 ) ) ;
#34 = FACE_OUTER_BOUND ( 'NONE', #12, .T. ) ;
#35 = DIRECTION ( 'NONE',  ( 1.000000000000000000, 0.0000000000000000000, 0.0000000000000000000 ) ) ;
#36 = CARTESIAN_POINT ( 'NONE',  ( 4.189777606611760026E-14, 6.823907011111384240E-33, 12.00000000000000000 ) ) ;
#37 = CARTESIAN_POINT ( 'NONE',  ( 4.189777606611760026E-14, 0.9099999999999923705, 12.00000000000000000 ) ) ;
#38 = CARTESIAN_POINT ( 'NONE',  ( 4.189777606611760026E-14, 0.9099999999999923705, 12.00000000000000000 ) ) ;
#39 = SECURITY_CLASSIFICATION_LEVEL ( 'unclassified' ) ;
#40 = UNCERTAINTY_MEASURE_WITH_UNIT (LENGTH_MEASURE( 1.000000000000000082E-05 ), #159, 'distance_accuracy_value', 'NONE');
#41 = COORDINATED_UNIVERSAL_TIME_OFFSET ( 1, 0, .AHEAD. ) ;
#42 = DATE_AND_TIME ( #24, #8 ) ;
#43 = PRODUCT ( '55430', '55430', '', ( #157 ) ) ;
#44 = FACE_OUTER_BOUND ( 'NONE', #2, .T. ) ;
#45 = DIRECTION ( 'NONE',  ( 0.0000000000000000000, 1.000000000000000000, 0.0000000000000000000 ) ) ;
#46 = FACE_BOUND ( 'NONE', #69, .T. ) ;
#47 = PLANE ( 'NONE',  #20 ) ;
#48 = APPROVAL_PERSON_ORGANIZATION ( #106, #25, #89 ) ;
#49 = DIRECTION ( 'NONE',  ( 0.0000000000000000000, 1.000000000000000000, 0.0000000000000000000 ) ) ;
#50 = EDGE_LOOP ( 'NONE', ( #3 ) ) ;
#51 = COORDINATED_UNIVERSAL_TIME_OFFSET ( 1, 0, .AHEAD. ) ;
#52 = CARTESIAN_POINT ( 'NONE',  ( 1.326762908760390423E-13, 0.7999999999999962697, 38.00000000000000000 ) ) ;
#53 = PERSON_AND_ORGANIZATION_ROLE ( 'design_owner' ) ;
#54 = VERTEX_POINT ( 'NONE', #52 ) ;
#55 = DATE_AND_TIME ( #78, #202 ) ;
#56 = ORGANIZATION ( 'UNSPECIFIED', 'UNSPECIFIED', '' ) ;
#57 = PERSON_AND_ORGANIZATION_ROLE ( 'classification_officer' ) ;
#58 = CARTESIAN_POINT ( 'NONE',  ( 4.189777606611760026E-14, 6.823907011111384240E-33, 12.00000000000000000 ) ) ;
#59 = FACE_OUTER_BOUND ( 'NONE', #16, .T. ) ;
#60 = EDGE_LOOP ( 'NONE', ( #82 ) ) ;
#61 = CARTESIAN_POINT ( 'NONE',  ( 4.244204414264756366E-14, -1.488666513273872968E-15, 12.15588457268120415 ) ) ;
#62 = ADVANCED_FACE ( 'NONE', ( #168 ), #47, .T. ) ;
#63 = CARTESIAN_POINT ( 'NONE',  ( 1.909083211108225391E-15, -6.696162507814794916E-17, 0.5467831633150818105 ) ) ;
#64 = AXIS2_PLACEMENT_3D ( 'NONE', #36, #125, #122 ) ;
#65 = CALENDAR_DATE ( 2021, 8, 10 ) ;
#66 = VERTEX_POINT ( 'NONE', #21 ) ;
#67 = LOCAL_TIME ( 7, 15, 49.00000000000000000, #51 ) ;
#68 = VERTEX_POINT ( 'NONE', #37 ) ;
#69 = EDGE_LOOP ( 'NONE', ( #31 ) ) ;
#70 = APPLICATION_PROTOCOL_DEFINITION ( 'international standard', 'config_control_design', 1994, #192 ) ;
#71 = PRODUCT_DEFINITION_SHAPE ( 'NONE', 'NONE',  #170 ) ;
#72 = PRODUCT_RELATED_PRODUCT_CATEGORY ( 'detail', '', ( #43 ) ) ;
#73 = APPROVAL_STATUS ( 'not_yet_approved' ) ;
#74 = CC_DESIGN_APPROVAL ( #85, ( #170 ) ) ;
#75 = APPROVAL_DATE_TIME ( #42, #113 ) ;
#76 = PERSON ( 'UNSPECIFIED', 'UNSPECIFIED', 'UNSPECIFIED', ('UNSPECIFIED'), ('UNSPECIFIED'), ('UNSPECIFIED') ) ;
#77 = DESIGN_CONTEXT ( 'detailed design', #192, 'design' ) ;
#78 = CALENDAR_DATE ( 2021, 8, 10 ) ;
#79 = CIRCLE ( 'NONE', #94, 0.9099999999999939249 ) ;
#80 = DATE_AND_TIME ( #162, #163 ) ;
#81 = CARTESIAN_POINT ( 'NONE',  ( 1.326762908760390423E-13, 5.999039130647367482E-33, 38.00000000000000000 ) ) ;
#82 = ORIENTED_EDGE ( 'NONE', *, *, #18, .T. ) ;
#83 = CYLINDRICAL_SURFACE ( 'NONE', #172, 0.9099999999999937028 ) ;
#84 = CARTESIAN_POINT ( 'NONE',  ( 0.0000000000000000000, 0.0000000000000000000, 0.0000000000000000000 ) ) ;
#85 = APPROVAL ( #217, 'UNSPECIFIED' ) ;
#86 = AXIS2_PLACEMENT_3D ( 'NONE', #165, #13, #149 ) ;
#87 = FACE_OUTER_BOUND ( 'NONE', #188, .T. ) ;
#88 = PERSON_AND_ORGANIZATION ( #76, #56 ) ;
#89 = APPROVAL_ROLE ( '' ) ;
#90 = AXIS2_PLACEMENT_3D ( 'NONE', #132, #4, #207 ) ;
#91 = PLANE ( 'NONE',  #64 ) ;
#92 = CC_DESIGN_PERSON_AND_ORGANIZATION_ASSIGNMENT ( #88, #155, ( #170 ) ) ;
#93 = APPROVAL_DATE_TIME ( #55, #25 ) ;
#94 = AXIS2_PLACEMENT_3D ( 'NONE', #181, #32, #129 ) ;
#95 = PERSON_AND_ORGANIZATION ( #76, #56 ) ;
#96 = SECURITY_CLASSIFICATION ( '', '', #39 ) ;
#97 = ADVANCED_FACE ( 'NONE', ( #114, #14 ), #83, .T. ) ;
#98 = FACE_OUTER_BOUND ( 'NONE', #60, .T. ) ;
#99 = EDGE_LOOP ( 'NONE', ( #135 ) ) ;
#100 = AXIS2_PLACEMENT_3D ( 'NONE', #151, #102, #169 ) ;
#101 = AXIS2_PLACEMENT_3D ( 'NONE', #205, #183, #158 ) ;
#102 = DIRECTION ( 'NONE',  ( 3.491481338843133355E-15, -1.224646799147353207E-16, 1.000000000000000000 ) ) ;
#103 = DIRECTION ( 'NONE',  ( -3.491481338843133355E-15, 1.224646799147353207E-16, -1.000000000000000000 ) ) ;
#104 = PERSON_AND_ORGANIZATION ( #76, #56 ) ;
#105 = AXIS2_PLACEMENT_3D ( 'NONE', #63, #164, #133 ) ;
#106 = PERSON_AND_ORGANIZATION ( #76, #56 ) ;
#107 = DIRECTION ( 'NONE',  ( 0.0000000000000000000, 1.000000000000000000, 0.0000000000000000000 ) ) ;
#108 = CARTESIAN_POINT ( 'NONE',  ( 1.319779946082704535E-13, -4.629164900776995227E-15, 37.79999999999999716 ) ) ;
#109 = CC_DESIGN_PERSON_AND_ORGANIZATION_ASSIGNMENT ( #221, #200, ( #179 ) ) ;
#110 = VERTEX_POINT ( 'NONE', #38 ) ;
#111 = AXIS2_PLACEMENT_3D ( 'NONE', #152, #148, #49 ) ;
#112 = ADVANCED_FACE ( 'NONE', ( #46, #44 ), #191, .T. ) ;
#113 = APPROVAL ( #73, 'UNSPECIFIED' ) ;
#114 = FACE_OUTER_BOUND ( 'NONE', #144, .T. ) ;
#115 = EDGE_LOOP ( 'NONE', ( #10 ) ) ;
#116 = PLANE ( 'NONE',  #223 ) ;
#117 = AXIS2_PLACEMENT_3D ( 'NONE', #61, #131, #209 ) ;
#118 = EDGE_LOOP ( 'NONE', ( #204 ) ) ;
#119 = CARTESIAN_POINT ( 'NONE',  ( 1.326762908760390423E-13, -4.653657836759941941E-15, 38.00000000000000000 ) ) ;
#120 = DATE_AND_TIME ( #65, #67 ) ;
#121 = APPLICATION_CONTEXT ( 'configuration controlled 3d designs of mechanical parts and assemblies' ) ;
#122 = DIRECTION ( 'NONE',  ( -4.275831445896958607E-31, -1.000000000000000000, -1.224646799147353207E-16 ) ) ;
#123 = DATE_TIME_ROLE ( 'creation_date' ) ;
#124 = ADVANCED_FACE ( 'NONE', ( #87 ), #116, .F. ) ;
#125 = DIRECTION ( 'NONE',  ( 3.491481338843133355E-15, -1.224646799147353207E-16, 1.000000000000000000 ) ) ;
#126 = CLOSED_SHELL ( 'NONE', ( #210, #112, #201, #203, #124 ) ) ;
#127 = CC_DESIGN_APPROVAL ( #113, ( #96 ) ) ;
#128 = CC_DESIGN_PERSON_AND_ORGANIZATION_ASSIGNMENT ( #161, #57, ( #96 ) ) ;
#129 = DIRECTION ( 'NONE',  ( 0.0000000000000000000, 1.000000000000000000, 0.0000000000000000000 ) ) ;
#130 = FACE_BOUND ( 'NONE', #115, .T. ) ;
#131 = DIRECTION ( 'NONE',  ( -3.491481338843133355E-15, 1.224646799147353207E-16, -1.000000000000000000 ) ) ;
#132 = CARTESIAN_POINT ( 'NONE',  ( 1.909083211108225391E-15, -6.696162507814794916E-17, 0.5467831633150818105 ) ) ;
#133 = DIRECTION ( 'NONE',  ( -4.232813064587361611E-31, -1.000000000000000000, -1.191430958775288061E-16 ) ) ;
#134 = FACE_OUTER_BOUND ( 'NONE', #99, .T. ) ;
#135 = ORIENTED_EDGE ( 'NONE', *, *, #160, .T. ) ;
#136 = MANIFOLD_SOLID_BREP ( 'Corps-Déplacer/Copier1[1]', #126 ) ;
#137 = CALENDAR_DATE ( 2021, 8, 10 ) ;
#138 = AXIS2_PLACEMENT_3D ( 'NONE', #19, #140, #35 ) ;
#139 = DIRECTION ( 'NONE',  ( -3.491481338843133355E-15, 1.224646799147353207E-16, -1.000000000000000000 ) ) ;
#140 = DIRECTION ( 'NONE',  ( 0.0000000000000000000, 0.0000000000000000000, 1.000000000000000000 ) ) ;
#141 = PERSON_AND_ORGANIZATION_ROLE ( 'creator' ) ;
#142 = COORDINATED_UNIVERSAL_TIME_OFFSET ( 1, 0, .AHEAD. ) ;
#143 = DATE_TIME_ROLE ( 'classification_date' ) ;
#144 = EDGE_LOOP ( 'NONE', ( #5 ) ) ;
#145 = CIRCLE ( 'NONE', #90, 0.9099999999999935918 ) ;
#146 = CC_DESIGN_DATE_AND_TIME_ASSIGNMENT ( #120, #123, ( #170 ) ) ;
#147 = CONICAL_SURFACE ( 'NONE', #101, 0.8000000000000009326, 0.7853981633974512766 ) ;
#148 = DIRECTION ( 'NONE',  ( -3.491481338843133355E-15, 1.224646799147353207E-16, -1.000000000000000000 ) ) ;
#149 = DIRECTION ( 'NONE',  ( 4.275831445896957731E-31, 1.000000000000000000, 1.224646799147353454E-16 ) ) ;
#150 = EDGE_LOOP ( 'NONE', ( #187 ) ) ;
#151 = CARTESIAN_POINT ( 'NONE',  ( 4.244204414264756366E-14, -1.488666513273872968E-15, 12.15588457268120415 ) ) ;
#152 = CARTESIAN_POINT ( 'NONE',  ( 4.189777606611760026E-14, -1.469576158976823947E-15, 12.00000000000000000 ) ) ;
#153 = CC_DESIGN_DATE_AND_TIME_ASSIGNMENT ( #80, #143, ( #96 ) ) ;
#154 = APPROVAL_PERSON_ORGANIZATION ( #9, #113, #176 ) ;
#155 = PERSON_AND_ORGANIZATION_ROLE ( 'creator' ) ;
#156 = DATE_AND_TIME ( #137, #173 ) ;
#157 = MECHANICAL_CONTEXT ( 'NONE', #121, 'mechanical' ) ;
#158 = DIRECTION ( 'NONE',  ( 0.0000000000000000000, 1.000000000000000000, 0.0000000000000000000 ) ) ;
#159 =( LENGTH_UNIT ( ) NAMED_UNIT ( * ) SI_UNIT ( .MILLI., .METRE. ) );
#160 = EDGE_CURVE ( 'NONE', #68, #68, #79, .T. ) ;
#161 = PERSON_AND_ORGANIZATION ( #76, #56 ) ;
#162 = CALENDAR_DATE ( 2021, 8, 10 ) ;
#163 = LOCAL_TIME ( 7, 15, 49.00000000000000000, #41 ) ;
#164 = DIRECTION ( 'NONE',  ( 3.491481338843133355E-15, -1.224646799147353207E-16, 1.000000000000000000 ) ) ;
#165 = CARTESIAN_POINT ( 'NONE',  ( 0.0000000000000000000, 0.0000000000000000000, 0.0000000000000000000 ) ) ;
#166 = DIRECTION ( 'NONE',  ( 4.275831445896958607E-31, 1.000000000000000000, 1.224646799147353207E-16 ) ) ;
#167 =( GEOMETRIC_REPRESENTATION_CONTEXT ( 3 ) GLOBAL_UNCERTAINTY_ASSIGNED_CONTEXT ( ( #40 ) ) GLOBAL_UNIT_ASSIGNED_CONTEXT ( ( #159, #190, #212 ) ) REPRESENTATION_CONTEXT ( 'NONE', 'WORKASPACE' ) );
#168 = FACE_OUTER_BOUND ( 'NONE', #118, .T. ) ;
#169 = DIRECTION ( 'NONE',  ( 0.0000000000000000000, -1.000000000000000000, 0.0000000000000000000 ) ) ;
#170 = PRODUCT_DEFINITION ( 'UNKNOWN', '', #179, #77 ) ;
#171 = PERSON_AND_ORGANIZATION ( #76, #56 ) ;
#172 = AXIS2_PLACEMENT_3D ( 'NONE', #84, #103, #166 ) ;
#173 = LOCAL_TIME ( 7, 15, 49.00000000000000000, #195 ) ;
#174 = APPROVAL_STATUS ( 'not_yet_approved' ) ;
#175 = ADVANCED_FACE ( 'NONE', ( #98 ), #26, .T. ) ;
#176 = APPROVAL_ROLE ( '' ) ;
#177 = EDGE_CURVE ( 'NONE', #110, #110, #27, .T. ) ;
#178 = ADVANCED_BREP_SHAPE_REPRESENTATION ( '55430', ( #136, #215, #138 ), #167 ) ;
#179 = PRODUCT_DEFINITION_FORMATION_WITH_SPECIFIED_SOURCE ( 'ANY', '', #43, .NOT_KNOWN. ) ;
#180 = EDGE_CURVE ( 'NONE', #54, #54, #30, .T. ) ;
#181 = CARTESIAN_POINT ( 'NONE',  ( 4.189777606611760026E-14, -1.469576158976823947E-15, 12.00000000000000000 ) ) ;
#182 = ORIENTED_EDGE ( 'NONE', *, *, #29, .T. ) ;
#183 = DIRECTION ( 'NONE',  ( -3.491481338843133355E-15, 1.224646799147353207E-16, -1.000000000000000000 ) ) ;
#184 = CLOSED_SHELL ( 'NONE', ( #175, #97, #62 ) ) ;
#185 = DIRECTION ( 'NONE',  ( -3.491481338843133355E-15, 1.224646799147353207E-16, -1.000000000000000000 ) ) ;
#186 = CC_DESIGN_PERSON_AND_ORGANIZATION_ASSIGNMENT ( #171, #53, ( #43 ) ) ;
#187 = ORIENTED_EDGE ( 'NONE', *, *, #220, .T. ) ;
#188 = EDGE_LOOP ( 'NONE', ( #196 ) ) ;
#189 = DIRECTION ( 'NONE',  ( -3.491481338843133355E-15, 1.224646799147353207E-16, -1.000000000000000000 ) ) ;
#190 =( NAMED_UNIT ( * ) PLANE_ANGLE_UNIT ( ) SI_UNIT ( $, .RADIAN. ) );
#191 = CONICAL_SURFACE ( 'NONE', #100, 0.9999999999999970024, 0.5235987755982973724 ) ;
#192 = APPLICATION_CONTEXT ( 'configuration controlled 3d designs of mechanical parts and assemblies' ) ;
#193 = CARTESIAN_POINT ( 'NONE',  ( 4.244204414264756366E-14, 0.9999999999999954481, 12.15588457268120415 ) ) ;
#194 = VERTEX_POINT ( 'NONE', #211 ) ;
#195 = COORDINATED_UNIVERSAL_TIME_OFFSET ( 1, 0, .AHEAD. ) ;
#196 = ORIENTED_EDGE ( 'NONE', *, *, #180, .F. ) ;
#197 = APPROVAL_PERSON_ORGANIZATION ( #104, #85, #7 ) ;
#198 = ORIENTED_EDGE ( 'NONE', *, *, #220, .F. ) ;
#199 = SHAPE_DEFINITION_REPRESENTATION ( #71, #178 ) ;
#200 = PERSON_AND_ORGANIZATION_ROLE ( 'design_supplier' ) ;
#201 = ADVANCED_FACE ( 'NONE', ( #34, #28 ), #1, .T. ) ;
#202 = LOCAL_TIME ( 7, 15, 49.00000000000000000, #142 ) ;
#203 = ADVANCED_FACE ( 'NONE', ( #59, #130 ), #147, .T. ) ;
#204 = ORIENTED_EDGE ( 'NONE', *, *, #177, .F. ) ;
#205 = CARTESIAN_POINT ( 'NONE',  ( 1.326762908760390423E-13, -4.653657836759941941E-15, 38.00000000000000000 ) ) ;
#206 = ORIENTED_EDGE ( 'NONE', *, *, #29, .F. ) ;
#207 = DIRECTION ( 'NONE',  ( 4.232813064587361611E-31, 1.000000000000000000, 1.191430958775288061E-16 ) ) ;
#208 = CIRCLE ( 'NONE', #22, 1.000000000000000888 ) ;
#209 = DIRECTION ( 'NONE',  ( 0.0000000000000000000, 1.000000000000000000, 0.0000000000000000000 ) ) ;
#210 = ADVANCED_FACE ( 'NONE', ( #134 ), #91, .F. ) ;
#211 = CARTESIAN_POINT ( 'NONE',  ( 1.909083211108225785E-15, 0.9099999999999934808, 0.5467831633150819215 ) ) ;
#212 =( NAMED_UNIT ( * ) SI_UNIT ( $, .STERADIAN. ) SOLID_ANGLE_UNIT ( ) );
#213 = CC_DESIGN_APPROVAL ( #25, ( #179 ) ) ;
#214 = APPLICATION_PROTOCOL_DEFINITION ( 'international standard', 'config_control_design', 1994, #121 ) ;
#215 = MANIFOLD_SOLID_BREP ( 'Corps-Déplacer/Copier1[2]', #184 ) ;
#216 = CC_DESIGN_PERSON_AND_ORGANIZATION_ASSIGNMENT ( #95, #141, ( #179 ) ) ;
#217 = APPROVAL_STATUS ( 'not_yet_approved' ) ;
#218 = CC_DESIGN_SECURITY_CLASSIFICATION ( #96, ( #179 ) ) ;
#219 = COORDINATED_UNIVERSAL_TIME_OFFSET ( 1, 0, .AHEAD. ) ;
#220 = EDGE_CURVE ( 'NONE', #66, #66, #208, .T. ) ;
#221 = PERSON_AND_ORGANIZATION ( #76, #56 ) ;
#222 = CIRCLE ( 'NONE', #117, 0.9999999999999970024 ) ;
#223 = AXIS2_PLACEMENT_3D ( 'NONE', #81, #185, #11 ) ;
ENDSEC;
END-ISO-10303-21;
