ISO-10303-21;
HEADER;
FILE_DESCRIPTION (( 'STEP AP203' ),
    '1' );
FILE_NAME ('55429.step',
    '2021-10-08T05:15:48',
    ( '' ),
    ( '' ),
    'SwSTEP 2.0',
    'SolidWorks 2019',
    '' );
FILE_SCHEMA (( 'CONFIG_CONTROL_DESIGN' ));
ENDSEC;

DATA;
#1 = APPROVAL_DATE_TIME ( #52, #105 ) ;
#2 = ADVANCED_FACE ( 'NONE', ( #180, #147 ), #214, .T. ) ;
#3 = PERSON_AND_ORGANIZATION_ROLE ( 'creator' ) ;
#4 = PLANE ( 'NONE',  #159 ) ;
#5 = EDGE_LOOP ( 'NONE', ( #150 ) ) ;
#6 = ADVANCED_FACE ( 'NONE', ( #111, #11 ), #196, .T. ) ;
#7 = ORIENTED_EDGE ( 'NONE', *, *, #218, .F. ) ;
#8 = AXIS2_PLACEMENT_3D ( 'NONE', #207, #80, #205 ) ;
#9 = UNCERTAINTY_MEASURE_WITH_UNIT (LENGTH_MEASURE( 1.000000000000000082E-05 ), #34, 'distance_accuracy_value', 'NONE');
#10 = APPLICATION_CONTEXT ( 'configuration controlled 3d designs of mechanical parts and assemblies' ) ;
#11 = FACE_OUTER_BOUND ( 'NONE', #77, .T. ) ;
#12 = ORIENTED_EDGE ( 'NONE', *, *, #218, .T. ) ;
#13 = DIRECTION ( 'NONE',  ( -4.275831445896958607E-31, -1.000000000000000000, -1.224646799147353207E-16 ) ) ;
#14 = CIRCLE ( 'NONE', #58, 0.9999999999999970024 ) ;
#15 = CARTESIAN_POINT ( 'NONE',  ( 1.319779946082704535E-13, 0.9999999999999963363, 37.79999999999999716 ) ) ;
#16 = CARTESIAN_POINT ( 'NONE',  ( 4.189777606611760026E-14, 6.748919021978314076E-33, 12.00000000000000000 ) ) ;
#17 = CIRCLE ( 'NONE', #220, 1.000000000000000888 ) ;
#18 = CARTESIAN_POINT ( 'NONE',  ( 1.326762908760390423E-13, 0.7999999999999962697, 38.00000000000000000 ) ) ;
#19 = PERSON_AND_ORGANIZATION_ROLE ( 'creator' ) ;
#20 = APPROVAL ( #89, 'UNSPECIFIED' ) ;
#21 = DATE_TIME_ROLE ( 'classification_date' ) ;
#22 = CC_DESIGN_PERSON_AND_ORGANIZATION_ASSIGNMENT ( #136, #19, ( #222 ) ) ;
#23 = PERSON_AND_ORGANIZATION ( #95, #209 ) ;
#24 = MECHANICAL_CONTEXT ( 'NONE', #10, 'mechanical' ) ;
#25 = PRODUCT_DEFINITION_SHAPE ( 'NONE', 'NONE',  #154 ) ;
#26 = CARTESIAN_POINT ( 'NONE',  ( 0.0000000000000000000, 0.0000000000000000000, 0.0000000000000000000 ) ) ;
#27 = DIRECTION ( 'NONE',  ( 4.275831445896958607E-31, 1.000000000000000000, 1.224646799147353207E-16 ) ) ;
#28 = EDGE_LOOP ( 'NONE', ( #73 ) ) ;
#29 = CARTESIAN_POINT ( 'NONE',  ( 4.189777606611760657E-14, -1.469576158976824144E-15, 12.00000000000000178 ) ) ;
#30 = VERTEX_POINT ( 'NONE', #190 ) ;
#31 = ADVANCED_FACE ( 'NONE', ( #112 ), #4, .F. ) ;
#32 = CIRCLE ( 'NONE', #62, 0.8999999999999969136 ) ;
#33 = CC_DESIGN_APPROVAL ( #93, ( #154 ) ) ;
#34 =( LENGTH_UNIT ( ) NAMED_UNIT ( * ) SI_UNIT ( .MILLI., .METRE. ) );
#35 = VERTEX_POINT ( 'NONE', #103 ) ;
#36 = DIRECTION ( 'NONE',  ( -3.491481338843133355E-15, 1.224646799147353207E-16, -1.000000000000000000 ) ) ;
#37 = AXIS2_PLACEMENT_3D ( 'NONE', #213, #60, #199 ) ;
#38 = APPROVAL_DATE_TIME ( #176, #20 ) ;
#39 = APPROVAL_ROLE ( '' ) ;
#40 = ADVANCED_FACE ( 'NONE', ( #127, #197 ), #215, .T. ) ;
#41 = APPROVAL_PERSON_ORGANIZATION ( #106, #93, #87 ) ;
#42 = CC_DESIGN_APPROVAL ( #105, ( #70 ) ) ;
#43 = FACE_OUTER_BOUND ( 'NONE', #76, .T. ) ;
#44 = CARTESIAN_POINT ( 'NONE',  ( 1.326762908760390423E-13, 5.999039130647367482E-33, 38.00000000000000000 ) ) ;
#45 = DESIGN_CONTEXT ( 'detailed design', #125, 'design' ) ;
#46 = CC_DESIGN_DATE_AND_TIME_ASSIGNMENT ( #88, #223, ( #154 ) ) ;
#47 = DIRECTION ( 'NONE',  ( 0.0000000000000000000, 1.000000000000000000, 0.0000000000000000000 ) ) ;
#48 = DIRECTION ( 'NONE',  ( 0.0000000000000000000, 1.000000000000000000, 0.0000000000000000000 ) ) ;
#49 = CARTESIAN_POINT ( 'NONE',  ( 1.326762908760390423E-13, -4.653657836759941941E-15, 38.00000000000000000 ) ) ;
#50 = CALENDAR_DATE ( 2021, 8, 10 ) ;
#51 = AXIS2_PLACEMENT_3D ( 'NONE', #186, #201, #117 ) ;
#52 = DATE_AND_TIME ( #120, #138 ) ;
#53 = CC_DESIGN_PERSON_AND_ORGANIZATION_ASSIGNMENT ( #54, #175, ( #222 ) ) ;
#54 = PERSON_AND_ORGANIZATION ( #95, #209 ) ;
#55 = CONICAL_SURFACE ( 'NONE', #184, 0.8999999999999935829, 1.029744258676649871 ) ;
#56 = PERSON_AND_ORGANIZATION_ROLE ( 'classification_officer' ) ;
#57 = DIRECTION ( 'NONE',  ( 4.275831445896958607E-31, 1.000000000000000000, 1.224646799147353207E-16 ) ) ;
#58 = AXIS2_PLACEMENT_3D ( 'NONE', #115, #133, #119 ) ;
#59 = APPROVAL_PERSON_ORGANIZATION ( #141, #105, #39 ) ;
#60 = DIRECTION ( 'NONE',  ( -3.491481338843133355E-15, 1.224646799147353207E-16, -1.000000000000000000 ) ) ;
#61 = EDGE_LOOP ( 'NONE', ( #166 ) ) ;
#62 = AXIS2_PLACEMENT_3D ( 'NONE', #174, #36, #48 ) ;
#63 = DIRECTION ( 'NONE',  ( 0.0000000000000000000, 1.000000000000000000, 0.0000000000000000000 ) ) ;
#64 = FACE_OUTER_BOUND ( 'NONE', #97, .T. ) ;
#65 = DIRECTION ( 'NONE',  ( -3.491481338843133355E-15, 1.224646799147353207E-16, -1.000000000000000000 ) ) ;
#66 = APPROVAL_STATUS ( 'not_yet_approved' ) ;
#67 = APPROVAL_STATUS ( 'not_yet_approved' ) ;
#68 = MANIFOLD_SOLID_BREP ( 'Corps-Déplacer/Copier1[2]', #146 ) ;
#69 = ADVANCED_FACE ( 'NONE', ( #43 ), #55, .T. ) ;
#70 = SECURITY_CLASSIFICATION ( '', '', #71 ) ;
#71 = SECURITY_CLASSIFICATION_LEVEL ( 'unclassified' ) ;
#72 = COORDINATED_UNIVERSAL_TIME_OFFSET ( 1, 0, .AHEAD. ) ;
#73 = ORIENTED_EDGE ( 'NONE', *, *, #81, .T. ) ;
#74 = EDGE_LOOP ( 'NONE', ( #7 ) ) ;
#75 = ADVANCED_FACE ( 'NONE', ( #203, #64 ), #128, .T. ) ;
#76 = EDGE_LOOP ( 'NONE', ( #12 ) ) ;
#77 = EDGE_LOOP ( 'NONE', ( #126 ) ) ;
#78 = PLANE ( 'NONE',  #116 ) ;
#79 = AXIS2_PLACEMENT_3D ( 'NONE', #181, #94, #27 ) ;
#80 = DIRECTION ( 'NONE',  ( 3.491481338843133355E-15, -1.224646799147353207E-16, 1.000000000000000000 ) ) ;
#81 = EDGE_CURVE ( 'NONE', #35, #35, #96, .T. ) ;
#82 =( NAMED_UNIT ( * ) SI_UNIT ( $, .STERADIAN. ) SOLID_ANGLE_UNIT ( ) );
#83 = EDGE_CURVE ( 'NONE', #102, #102, #17, .T. ) ;
#84 = DIRECTION ( 'NONE',  ( -3.491481338843133355E-15, 1.224646799147353207E-16, -1.000000000000000000 ) ) ;
#85 = AXIS2_PLACEMENT_3D ( 'NONE', #107, #194, #162 ) ;
#86 = CARTESIAN_POINT ( 'NONE',  ( 4.189777606611760657E-14, 0.8999999999999954703, 12.00000000000000178 ) ) ;
#87 = APPROVAL_ROLE ( '' ) ;
#88 = DATE_AND_TIME ( #121, #129 ) ;
#89 = APPROVAL_STATUS ( 'not_yet_approved' ) ;
#90 = PRODUCT ( '55429', '55429', '', ( #24 ) ) ;
#91 = CIRCLE ( 'NONE', #189, 0.8999999999999935829 ) ;
#92 = DIRECTION ( 'NONE',  ( -3.491481338843133355E-15, 1.224646799147353207E-16, -1.000000000000000000 ) ) ;
#93 = APPROVAL ( #66, 'UNSPECIFIED' ) ;
#94 = DIRECTION ( 'NONE',  ( -3.491481338843133355E-15, 1.224646799147353207E-16, -1.000000000000000000 ) ) ;
#95 = PERSON ( 'UNSPECIFIED', 'UNSPECIFIED', 'UNSPECIFIED', ('UNSPECIFIED'), ('UNSPECIFIED'), ('UNSPECIFIED') ) ;
#96 = CIRCLE ( 'NONE', #163, 0.8999999999999969136 ) ;
#97 = EDGE_LOOP ( 'NONE', ( #216 ) ) ;
#98 = FACE_OUTER_BOUND ( 'NONE', #131, .T. ) ;
#99 = CARTESIAN_POINT ( 'NONE',  ( 1.888104274722421219E-15, 0.8999999999999934719, 0.5407745571248062655 ) ) ;
#100 = LOCAL_TIME ( 7, 15, 48.00000000000000000, #212 ) ;
#101 = CARTESIAN_POINT ( 'NONE',  ( 1.319779946082704535E-13, -4.629164900776995227E-15, 37.79999999999999716 ) ) ;
#102 = VERTEX_POINT ( 'NONE', #15 ) ;
#103 = CARTESIAN_POINT ( 'NONE',  ( 4.189777606611760657E-14, 0.8999999999999954703, 12.00000000000000178 ) ) ;
#104 = AXIS2_PLACEMENT_3D ( 'NONE', #26, #92, #164 ) ;
#105 = APPROVAL ( #67, 'UNSPECIFIED' ) ;
#106 = PERSON_AND_ORGANIZATION ( #95, #209 ) ;
#107 = CARTESIAN_POINT ( 'NONE',  ( 0.0000000000000000000, 0.0000000000000000000, 0.0000000000000000000 ) ) ;
#108 = PERSON_AND_ORGANIZATION ( #95, #209 ) ;
#109 = ORIENTED_EDGE ( 'NONE', *, *, #155, .F. ) ;
#110 = ADVANCED_FACE ( 'NONE', ( #98 ), #78, .F. ) ;
#111 = FACE_OUTER_BOUND ( 'NONE', #145, .T. ) ;
#112 = FACE_OUTER_BOUND ( 'NONE', #113, .T. ) ;
#113 = EDGE_LOOP ( 'NONE', ( #109 ) ) ;
#114 = CC_DESIGN_PERSON_AND_ORGANIZATION_ASSIGNMENT ( #23, #158, ( #90 ) ) ;
#115 = CARTESIAN_POINT ( 'NONE',  ( 4.250251837337311375E-14, -1.490787663751322662E-15, 12.17320508075689389 ) ) ;
#116 = AXIS2_PLACEMENT_3D ( 'NONE', #16, #170, #13 ) ;
#117 = DIRECTION ( 'NONE',  ( 0.0000000000000000000, -1.000000000000000000, 0.0000000000000000000 ) ) ;
#118 = DIRECTION ( 'NONE',  ( -3.491481338843133355E-15, 1.224646799147353207E-16, -1.000000000000000000 ) ) ;
#119 = DIRECTION ( 'NONE',  ( 0.0000000000000000000, 1.000000000000000000, 0.0000000000000000000 ) ) ;
#120 = CALENDAR_DATE ( 2021, 8, 10 ) ;
#121 = CALENDAR_DATE ( 2021, 8, 10 ) ;
#122 = APPROVAL_ROLE ( '' ) ;
#123 = COORDINATED_UNIVERSAL_TIME_OFFSET ( 1, 0, .AHEAD. ) ;
#124 = PERSON_AND_ORGANIZATION ( #95, #209 ) ;
#125 = APPLICATION_CONTEXT ( 'configuration controlled 3d designs of mechanical parts and assemblies' ) ;
#126 = ORIENTED_EDGE ( 'NONE', *, *, #83, .T. ) ;
#127 = FACE_OUTER_BOUND ( 'NONE', #74, .T. ) ;
#128 = CONICAL_SURFACE ( 'NONE', #51, 0.9999999999999970024, 0.5235987755982891567 ) ;
#129 = LOCAL_TIME ( 7, 15, 48.00000000000000000, #123 ) ;
#130 = CC_DESIGN_PERSON_AND_ORGANIZATION_ASSIGNMENT ( #208, #56, ( #70 ) ) ;
#131 = EDGE_LOOP ( 'NONE', ( #167 ) ) ;
#132 =( NAMED_UNIT ( * ) PLANE_ANGLE_UNIT ( ) SI_UNIT ( $, .RADIAN. ) );
#133 = DIRECTION ( 'NONE',  ( -3.491481338843133355E-15, 1.224646799147353207E-16, -1.000000000000000000 ) ) ;
#134 = DIRECTION ( 'NONE',  ( 0.0000000000000000000, 1.000000000000000000, 0.0000000000000000000 ) ) ;
#135 = FACE_OUTER_BOUND ( 'NONE', #5, .T. ) ;
#136 = PERSON_AND_ORGANIZATION ( #95, #209 ) ;
#137 =( GEOMETRIC_REPRESENTATION_CONTEXT ( 3 ) GLOBAL_UNCERTAINTY_ASSIGNED_CONTEXT ( ( #9 ) ) GLOBAL_UNIT_ASSIGNED_CONTEXT ( ( #34, #132, #82 ) ) REPRESENTATION_CONTEXT ( 'NONE', 'WORKASPACE' ) );
#138 = LOCAL_TIME ( 7, 15, 48.00000000000000000, #179 ) ;
#139 = CALENDAR_DATE ( 2021, 8, 10 ) ;
#140 = ADVANCED_BREP_SHAPE_REPRESENTATION ( '55429', ( #143, #68, #85 ), #137 ) ;
#141 = PERSON_AND_ORGANIZATION ( #95, #209 ) ;
#142 = COORDINATED_UNIVERSAL_TIME_OFFSET ( 1, 0, .AHEAD. ) ;
#143 = MANIFOLD_SOLID_BREP ( 'Corps-Déplacer/Copier1[1]', #151 ) ;
#144 = DIRECTION ( 'NONE',  ( -3.491481338843133355E-15, 1.224646799147353207E-16, -1.000000000000000000 ) ) ;
#145 = EDGE_LOOP ( 'NONE', ( #185 ) ) ;
#146 = CLOSED_SHELL ( 'NONE', ( #69, #40, #152 ) ) ;
#147 = FACE_BOUND ( 'NONE', #217, .T. ) ;
#148 = EDGE_LOOP ( 'NONE', ( #200 ) ) ;
#149 = CC_DESIGN_SECURITY_CLASSIFICATION ( #70, ( #222 ) ) ;
#150 = ORIENTED_EDGE ( 'NONE', *, *, #81, .F. ) ;
#151 = CLOSED_SHELL ( 'NONE', ( #110, #75, #6, #2, #31 ) ) ;
#152 = ADVANCED_FACE ( 'NONE', ( #135 ), #192, .T. ) ;
#153 = DIRECTION ( 'NONE',  ( -4.279844320860554674E-31, -1.000000000000000000, -1.204669080539457972E-16 ) ) ;
#154 = PRODUCT_DEFINITION ( 'UNKNOWN', '', #222, #45 ) ;
#155 = EDGE_CURVE ( 'NONE', #204, #204, #173, .T. ) ;
#156 = VERTEX_POINT ( 'NONE', #86 ) ;
#157 = VERTEX_POINT ( 'NONE', #99 ) ;
#158 = PERSON_AND_ORGANIZATION_ROLE ( 'design_owner' ) ;
#159 = AXIS2_PLACEMENT_3D ( 'NONE', #44, #144, #57 ) ;
#160 = APPROVAL_PERSON_ORGANIZATION ( #108, #20, #122 ) ;
#161 = APPROVAL_DATE_TIME ( #221, #93 ) ;
#162 = DIRECTION ( 'NONE',  ( 1.000000000000000000, 0.0000000000000000000, 0.0000000000000000000 ) ) ;
#163 = AXIS2_PLACEMENT_3D ( 'NONE', #29, #118, #134 ) ;
#164 = DIRECTION ( 'NONE',  ( 4.275831445896957731E-31, 1.000000000000000000, 1.224646799147353454E-16 ) ) ;
#165 = ORIENTED_EDGE ( 'NONE', *, *, #155, .T. ) ;
#166 = ORIENTED_EDGE ( 'NONE', *, *, #206, .F. ) ;
#167 = ORIENTED_EDGE ( 'NONE', *, *, #206, .T. ) ;
#168 = LOCAL_TIME ( 7, 15, 48.00000000000000000, #72 ) ;
#169 = LOCAL_TIME ( 7, 15, 48.00000000000000000, #142 ) ;
#170 = DIRECTION ( 'NONE',  ( 3.491481338843133355E-15, -1.224646799147353207E-16, 1.000000000000000000 ) ) ;
#171 = CARTESIAN_POINT ( 'NONE',  ( 1.888104274722420824E-15, -6.622578304432214833E-17, 0.5407745571248061545 ) ) ;
#172 = DIRECTION ( 'NONE',  ( -3.491481338843133355E-15, 1.224646799147353207E-16, -1.000000000000000000 ) ) ;
#173 = CIRCLE ( 'NONE', #178, 0.8000000000000009326 ) ;
#174 = CARTESIAN_POINT ( 'NONE',  ( 4.189777606611760657E-14, -1.469576158976824144E-15, 12.00000000000000178 ) ) ;
#175 = PERSON_AND_ORGANIZATION_ROLE ( 'design_supplier' ) ;
#176 = DATE_AND_TIME ( #139, #169 ) ;
#177 = APPLICATION_PROTOCOL_DEFINITION ( 'international standard', 'config_control_design', 1994, #125 ) ;
#178 = AXIS2_PLACEMENT_3D ( 'NONE', #49, #172, #63 ) ;
#179 = COORDINATED_UNIVERSAL_TIME_OFFSET ( 1, 0, .AHEAD. ) ;
#180 = FACE_OUTER_BOUND ( 'NONE', #148, .T. ) ;
#181 = CARTESIAN_POINT ( 'NONE',  ( 0.0000000000000000000, 0.0000000000000000000, 0.0000000000000000000 ) ) ;
#182 = CARTESIAN_POINT ( 'NONE',  ( 1.888104274722420824E-15, -6.622578304432214833E-17, 0.5407745571248061545 ) ) ;
#183 = EDGE_CURVE ( 'NONE', #30, #30, #14, .T. ) ;
#184 = AXIS2_PLACEMENT_3D ( 'NONE', #182, #219, #153 ) ;
#185 = ORIENTED_EDGE ( 'NONE', *, *, #183, .F. ) ;
#186 = CARTESIAN_POINT ( 'NONE',  ( 4.250251837337311375E-14, -1.490787663751322662E-15, 12.17320508075689389 ) ) ;
#187 = CC_DESIGN_PERSON_AND_ORGANIZATION_ASSIGNMENT ( #124, #3, ( #154 ) ) ;
#188 = APPLICATION_PROTOCOL_DEFINITION ( 'international standard', 'config_control_design', 1994, #10 ) ;
#189 = AXIS2_PLACEMENT_3D ( 'NONE', #171, #84, #191 ) ;
#190 = CARTESIAN_POINT ( 'NONE',  ( 4.250251837337311375E-14, 0.9999999999999954481, 12.17320508075689389 ) ) ;
#191 = DIRECTION ( 'NONE',  ( 4.279844320860554674E-31, 1.000000000000000000, 1.204669080539457972E-16 ) ) ;
#192 = PLANE ( 'NONE',  #8 ) ;
#193 = SHAPE_DEFINITION_REPRESENTATION ( #25, #140 ) ;
#194 = DIRECTION ( 'NONE',  ( 0.0000000000000000000, 0.0000000000000000000, 1.000000000000000000 ) ) ;
#195 = DATE_AND_TIME ( #210, #100 ) ;
#196 = CYLINDRICAL_SURFACE ( 'NONE', #104, 0.9999999999999988898 ) ;
#197 = FACE_OUTER_BOUND ( 'NONE', #28, .T. ) ;
#198 = CC_DESIGN_APPROVAL ( #20, ( #222 ) ) ;
#199 = DIRECTION ( 'NONE',  ( 0.0000000000000000000, 1.000000000000000000, 0.0000000000000000000 ) ) ;
#200 = ORIENTED_EDGE ( 'NONE', *, *, #83, .F. ) ;
#201 = DIRECTION ( 'NONE',  ( 3.491481338843133355E-15, -1.224646799147353207E-16, 1.000000000000000000 ) ) ;
#202 = CC_DESIGN_DATE_AND_TIME_ASSIGNMENT ( #195, #21, ( #70 ) ) ;
#203 = FACE_BOUND ( 'NONE', #61, .T. ) ;
#204 = VERTEX_POINT ( 'NONE', #18 ) ;
#205 = DIRECTION ( 'NONE',  ( -4.275831445896958607E-31, -1.000000000000000000, -1.224646799147353207E-16 ) ) ;
#206 = EDGE_CURVE ( 'NONE', #156, #156, #32, .T. ) ;
#207 = CARTESIAN_POINT ( 'NONE',  ( 4.189777606611760026E-14, 6.748919021978314076E-33, 12.00000000000000000 ) ) ;
#208 = PERSON_AND_ORGANIZATION ( #95, #209 ) ;
#209 = ORGANIZATION ( 'UNSPECIFIED', 'UNSPECIFIED', '' ) ;
#210 = CALENDAR_DATE ( 2021, 8, 10 ) ;
#211 = PRODUCT_RELATED_PRODUCT_CATEGORY ( 'detail', '', ( #90 ) ) ;
#212 = COORDINATED_UNIVERSAL_TIME_OFFSET ( 1, 0, .AHEAD. ) ;
#213 = CARTESIAN_POINT ( 'NONE',  ( 1.326762908760390423E-13, -4.653657836759941941E-15, 38.00000000000000000 ) ) ;
#214 = CONICAL_SURFACE ( 'NONE', #37, 0.8000000000000009326, 0.7853981633974512766 ) ;
#215 = CYLINDRICAL_SURFACE ( 'NONE', #79, 0.8999999999999952482 ) ;
#216 = ORIENTED_EDGE ( 'NONE', *, *, #183, .T. ) ;
#217 = EDGE_LOOP ( 'NONE', ( #165 ) ) ;
#218 = EDGE_CURVE ( 'NONE', #157, #157, #91, .T. ) ;
#219 = DIRECTION ( 'NONE',  ( 3.491481338843133355E-15, -1.224646799147353207E-16, 1.000000000000000000 ) ) ;
#220 = AXIS2_PLACEMENT_3D ( 'NONE', #101, #65, #47 ) ;
#221 = DATE_AND_TIME ( #50, #168 ) ;
#222 = PRODUCT_DEFINITION_FORMATION_WITH_SPECIFIED_SOURCE ( 'ANY', '', #90, .NOT_KNOWN. ) ;
#223 = DATE_TIME_ROLE ( 'creation_date' ) ;
ENDSEC;
END-ISO-10303-21;
