ISO-10303-21;
HEADER;
FILE_DESCRIPTION (( 'STEP AP203' ),
    '1' );
FILE_NAME ('55428.step',
    '2021-10-08T05:15:47',
    ( '' ),
    ( '' ),
    'SwSTEP 2.0',
    'SolidWorks 2019',
    '' );
FILE_SCHEMA (( 'CONFIG_CONTROL_DESIGN' ));
ENDSEC;

DATA;
#1 = DIRECTION ( 'NONE',  ( -3.491481338843133355E-15, 1.224646799147353207E-16, -1.000000000000000000 ) ) ;
#2 = DIRECTION ( 'NONE',  ( -3.491481338843133355E-15, 1.224646799147353207E-16, -1.000000000000000000 ) ) ;
#3 = FACE_BOUND ( 'NONE', #168, .T. ) ;
#4 = PERSON_AND_ORGANIZATION ( #174, #205 ) ;
#5 = APPLICATION_PROTOCOL_DEFINITION ( 'international standard', 'config_control_design', 1994, #158 ) ;
#6 = CC_DESIGN_PERSON_AND_ORGANIZATION_ASSIGNMENT ( #113, #45, ( #150 ) ) ;
#7 = AXIS2_PLACEMENT_3D ( 'NONE', #74, #41, #38 ) ;
#8 = PERSON_AND_ORGANIZATION ( #174, #205 ) ;
#9 = APPROVAL_ROLE ( '' ) ;
#10 = PERSON_AND_ORGANIZATION ( #174, #205 ) ;
#11 = AXIS2_PLACEMENT_3D ( 'NONE', #90, #55, #40 ) ;
#12 = ORIENTED_EDGE ( 'NONE', *, *, #35, .T. ) ;
#13 = EDGE_LOOP ( 'NONE', ( #84 ) ) ;
#14 = EDGE_LOOP ( 'NONE', ( #121 ) ) ;
#15 = COORDINATED_UNIVERSAL_TIME_OFFSET ( 1, 0, .AHEAD. ) ;
#16 = CONICAL_SURFACE ( 'NONE', #7, 0.8000000000000009326, 0.7853981633974512766 ) ;
#17 = ORIENTED_EDGE ( 'NONE', *, *, #120, .T. ) ;
#18 = DIRECTION ( 'NONE',  ( 0.0000000000000000000, -1.000000000000000000, 0.0000000000000000000 ) ) ;
#19 = DIRECTION ( 'NONE',  ( 0.0000000000000000000, 1.000000000000000000, 0.0000000000000000000 ) ) ;
#20 = CONICAL_SURFACE ( 'NONE', #49, 0.9999999999999970024, 0.5235987755982931535 ) ;
#21 = CC_DESIGN_APPROVAL ( #37, ( #150 ) ) ;
#22 = FACE_OUTER_BOUND ( 'NONE', #153, .T. ) ;
#23 = CARTESIAN_POINT ( 'NONE',  ( 4.259322971946143888E-14, -1.493969389467497598E-15, 12.19918584287042762 ) ) ;
#24 = DATE_AND_TIME ( #29, #51 ) ;
#25 = CARTESIAN_POINT ( 'NONE',  ( 4.189777606611760657E-14, 0.8849999999999943467, 12.00000000000000178 ) ) ;
#26 = PERSON_AND_ORGANIZATION_ROLE ( 'design_owner' ) ;
#27 = APPROVAL_ROLE ( '' ) ;
#28 = APPROVAL_PERSON_ORGANIZATION ( #182, #207, #48 ) ;
#29 = CALENDAR_DATE ( 2021, 8, 10 ) ;
#30 = CLOSED_SHELL ( 'NONE', ( #32, #199, #212, #93, #100 ) ) ;
#31 = SECURITY_CLASSIFICATION ( '', '', #197 ) ;
#32 = ADVANCED_FACE ( 'NONE', ( #70 ), #139, .F. ) ;
#33 = EDGE_LOOP ( 'NONE', ( #102 ) ) ;
#34 = DIRECTION ( 'NONE',  ( 3.491481338843133355E-15, -1.224646799147353207E-16, 1.000000000000000000 ) ) ;
#35 = EDGE_CURVE ( 'NONE', #53, #53, #169, .T. ) ;
#36 = FACE_OUTER_BOUND ( 'NONE', #33, .T. ) ;
#37 = APPROVAL ( #213, 'UNSPECIFIED' ) ;
#38 = DIRECTION ( 'NONE',  ( 0.0000000000000000000, 1.000000000000000000, 0.0000000000000000000 ) ) ;
#39 = EDGE_CURVE ( 'NONE', #107, #107, #110, .T. ) ;
#40 = DIRECTION ( 'NONE',  ( 4.275831445896958607E-31, 1.000000000000000000, 1.224646799147353207E-16 ) ) ;
#41 = DIRECTION ( 'NONE',  ( -3.491481338843133355E-15, 1.224646799147353207E-16, -1.000000000000000000 ) ) ;
#42 = CC_DESIGN_PERSON_AND_ORGANIZATION_ASSIGNMENT ( #8, #26, ( #216 ) ) ;
#43 = CIRCLE ( 'NONE', #104, 0.8000000000000009326 ) ;
#44 = PERSON_AND_ORGANIZATION_ROLE ( 'creator' ) ;
#45 = PERSON_AND_ORGANIZATION_ROLE ( 'design_supplier' ) ;
#46 = PERSON_AND_ORGANIZATION ( #174, #205 ) ;
#47 = DESIGN_CONTEXT ( 'detailed design', #94, 'design' ) ;
#48 = APPROVAL_ROLE ( '' ) ;
#49 = AXIS2_PLACEMENT_3D ( 'NONE', #75, #125, #18 ) ;
#50 = ORIENTED_EDGE ( 'NONE', *, *, #147, .T. ) ;
#51 = LOCAL_TIME ( 7, 15, 47.00000000000000000, #119 ) ;
#52 = ADVANCED_BREP_SHAPE_REPRESENTATION ( '55428', ( #65, #214, #222 ), #91 ) ;
#53 = VERTEX_POINT ( 'NONE', #123 ) ;
#54 = EDGE_CURVE ( 'NONE', #223, #223, #57, .T. ) ;
#55 = DIRECTION ( 'NONE',  ( -3.491481338843133355E-15, 1.224646799147353207E-16, -1.000000000000000000 ) ) ;
#56 = FACE_OUTER_BOUND ( 'NONE', #14, .T. ) ;
#57 = CIRCLE ( 'NONE', #88, 0.8849999999999936806 ) ;
#58 = FACE_OUTER_BOUND ( 'NONE', #13, .T. ) ;
#59 = FACE_OUTER_BOUND ( 'NONE', #217, .T. ) ;
#60 =( LENGTH_UNIT ( ) NAMED_UNIT ( * ) SI_UNIT ( .MILLI., .METRE. ) );
#61 = ADVANCED_FACE ( 'NONE', ( #58 ), #203, .T. ) ;
#62 = AXIS2_PLACEMENT_3D ( 'NONE', #208, #34, #143 ) ;
#63 = DATE_AND_TIME ( #97, #72 ) ;
#64 = COORDINATED_UNIVERSAL_TIME_OFFSET ( 1, 0, .AHEAD. ) ;
#65 = MANIFOLD_SOLID_BREP ( 'Corps-Déplacer/Copier1[1]', #30 ) ;
#66 = CARTESIAN_POINT ( 'NONE',  ( 1.319779946082704535E-13, 0.9999999999999963363, 37.79999999999999716 ) ) ;
#67 = EDGE_LOOP ( 'NONE', ( #12 ) ) ;
#68 = EDGE_LOOP ( 'NONE', ( #85 ) ) ;
#69 = DATE_TIME_ROLE ( 'classification_date' ) ;
#70 = FACE_OUTER_BOUND ( 'NONE', #67, .T. ) ;
#71 = CARTESIAN_POINT ( 'NONE',  ( 4.189777606611760026E-14, 6.636437038278665724E-33, 12.00000000000000000 ) ) ;
#72 = LOCAL_TIME ( 7, 15, 47.00000000000000000, #196 ) ;
#73 = DIRECTION ( 'NONE',  ( 3.491481338843133355E-15, -1.224646799147353207E-16, 1.000000000000000000 ) ) ;
#74 = CARTESIAN_POINT ( 'NONE',  ( 1.326762908760390423E-13, -4.653657836759941941E-15, 38.00000000000000000 ) ) ;
#75 = CARTESIAN_POINT ( 'NONE',  ( 4.259322971946143888E-14, -1.493969389467497598E-15, 12.19918584287042762 ) ) ;
#76 = DIRECTION ( 'NONE',  ( -4.352384055112428215E-31, -1.000000000000000000, -1.225087200548601252E-16 ) ) ;
#77 = DIRECTION ( 'NONE',  ( 0.0000000000000000000, 0.0000000000000000000, 1.000000000000000000 ) ) ;
#78 = APPROVAL_STATUS ( 'not_yet_approved' ) ;
#79 = CC_DESIGN_DATE_AND_TIME_ASSIGNMENT ( #24, #69, ( #31 ) ) ;
#80 = PERSON_AND_ORGANIZATION ( #174, #205 ) ;
#81 = AXIS2_PLACEMENT_3D ( 'NONE', #71, #73, #112 ) ;
#82 = DATE_AND_TIME ( #156, #135 ) ;
#83 = PRODUCT_DEFINITION_SHAPE ( 'NONE', 'NONE',  #221 ) ;
#84 = ORIENTED_EDGE ( 'NONE', *, *, #54, .T. ) ;
#85 = ORIENTED_EDGE ( 'NONE', *, *, #39, .F. ) ;
#86 = CARTESIAN_POINT ( 'NONE',  ( 1.326762908760390423E-13, -4.653657836759941941E-15, 38.00000000000000000 ) ) ;
#87 = CARTESIAN_POINT ( 'NONE',  ( 4.259322971946143888E-14, 0.9999999999999954481, 12.19918584287042762 ) ) ;
#88 = AXIS2_PLACEMENT_3D ( 'NONE', #142, #1, #173 ) ;
#89 = CARTESIAN_POINT ( 'NONE',  ( 4.189777606611760657E-14, -1.469576158976824144E-15, 12.00000000000000178 ) ) ;
#90 = CARTESIAN_POINT ( 'NONE',  ( 1.326762908760390423E-13, 5.999039130647367482E-33, 38.00000000000000000 ) ) ;
#91 =( GEOMETRIC_REPRESENTATION_CONTEXT ( 3 ) GLOBAL_UNCERTAINTY_ASSIGNED_CONTEXT ( ( #215 ) ) GLOBAL_UNIT_ASSIGNED_CONTEXT ( ( #60, #179, #118 ) ) REPRESENTATION_CONTEXT ( 'NONE', 'WORKASPACE' ) );
#92 = CARTESIAN_POINT ( 'NONE',  ( 0.0000000000000000000, 0.0000000000000000000, 0.0000000000000000000 ) ) ;
#93 = ADVANCED_FACE ( 'NONE', ( #144, #192 ), #16, .T. ) ;
#94 = APPLICATION_CONTEXT ( 'configuration controlled 3d designs of mechanical parts and assemblies' ) ;
#95 = DATE_TIME_ROLE ( 'creation_date' ) ;
#96 = APPLICATION_PROTOCOL_DEFINITION ( 'international standard', 'config_control_design', 1994, #94 ) ;
#97 = CALENDAR_DATE ( 2021, 8, 10 ) ;
#98 = VERTEX_POINT ( 'NONE', #66 ) ;
#99 = CC_DESIGN_PERSON_AND_ORGANIZATION_ASSIGNMENT ( #46, #177, ( #31 ) ) ;
#100 = ADVANCED_FACE ( 'NONE', ( #59 ), #176, .F. ) ;
#101 = PRODUCT_RELATED_PRODUCT_CATEGORY ( 'detail', '', ( #216 ) ) ;
#102 = ORIENTED_EDGE ( 'NONE', *, *, #147, .F. ) ;
#103 = APPROVAL_STATUS ( 'not_yet_approved' ) ;
#104 = AXIS2_PLACEMENT_3D ( 'NONE', #86, #209, #189 ) ;
#105 = ORIENTED_EDGE ( 'NONE', *, *, #170, .T. ) ;
#106 = DIRECTION ( 'NONE',  ( 3.491481338843133355E-15, -1.224646799147353207E-16, 1.000000000000000000 ) ) ;
#107 = VERTEX_POINT ( 'NONE', #87 ) ;
#108 = ADVANCED_FACE ( 'NONE', ( #22, #171 ), #161, .T. ) ;
#109 = DIRECTION ( 'NONE',  ( 0.0000000000000000000, 1.000000000000000000, 0.0000000000000000000 ) ) ;
#110 = CIRCLE ( 'NONE', #134, 0.9999999999999970024 ) ;
#111 = DIRECTION ( 'NONE',  ( 4.275831445896958607E-31, 1.000000000000000000, 1.224646799147353207E-16 ) ) ;
#112 = DIRECTION ( 'NONE',  ( -4.275831445896958607E-31, -1.000000000000000000, -1.224646799147353207E-16 ) ) ;
#113 = PERSON_AND_ORGANIZATION ( #174, #205 ) ;
#114 = AXIS2_PLACEMENT_3D ( 'NONE', #162, #106, #76 ) ;
#115 = LOCAL_TIME ( 7, 15, 47.00000000000000000, #64 ) ;
#116 = CARTESIAN_POINT ( 'NONE',  ( 1.856635870143714764E-15, 0.8849999999999935696, 0.5317616478393929480 ) ) ;
#117 = CC_DESIGN_PERSON_AND_ORGANIZATION_ASSIGNMENT ( #193, #44, ( #150 ) ) ;
#118 =( NAMED_UNIT ( * ) SI_UNIT ( $, .STERADIAN. ) SOLID_ANGLE_UNIT ( ) );
#119 = COORDINATED_UNIVERSAL_TIME_OFFSET ( 1, 0, .AHEAD. ) ;
#120 = EDGE_CURVE ( 'NONE', #98, #98, #129, .T. ) ;
#121 = ORIENTED_EDGE ( 'NONE', *, *, #39, .T. ) ;
#122 = ORIENTED_EDGE ( 'NONE', *, *, #120, .F. ) ;
#123 = CARTESIAN_POINT ( 'NONE',  ( 4.189777606611760657E-14, 0.8849999999999943467, 12.00000000000000178 ) ) ;
#124 = DIRECTION ( 'NONE',  ( -3.491481338843133355E-15, 1.224646799147353207E-16, -1.000000000000000000 ) ) ;
#125 = DIRECTION ( 'NONE',  ( 3.491481338843133355E-15, -1.224646799147353207E-16, 1.000000000000000000 ) ) ;
#126 = LOCAL_TIME ( 7, 15, 47.00000000000000000, #132 ) ;
#127 = CARTESIAN_POINT ( 'NONE',  ( 0.0000000000000000000, 0.0000000000000000000, 0.0000000000000000000 ) ) ;
#128 = VERTEX_POINT ( 'NONE', #25 ) ;
#129 = CIRCLE ( 'NONE', #194, 1.000000000000000888 ) ;
#130 = APPROVAL_DATE_TIME ( #131, #37 ) ;
#131 = DATE_AND_TIME ( #151, #126 ) ;
#132 = COORDINATED_UNIVERSAL_TIME_OFFSET ( 1, 0, .AHEAD. ) ;
#133 = CC_DESIGN_PERSON_AND_ORGANIZATION_ASSIGNMENT ( #80, #148, ( #221 ) ) ;
#134 = AXIS2_PLACEMENT_3D ( 'NONE', #23, #191, #19 ) ;
#135 = LOCAL_TIME ( 7, 15, 47.00000000000000000, #15 ) ;
#136 = EDGE_LOOP ( 'NONE', ( #17 ) ) ;
#137 = EDGE_LOOP ( 'NONE', ( #105 ) ) ;
#138 = APPROVAL_DATE_TIME ( #82, #207 ) ;
#139 = PLANE ( 'NONE',  #81 ) ;
#140 = CIRCLE ( 'NONE', #198, 0.8849999999999957900 ) ;
#141 = DIRECTION ( 'NONE',  ( -3.491481338843133355E-15, 1.224646799147353207E-16, -1.000000000000000000 ) ) ;
#142 = CARTESIAN_POINT ( 'NONE',  ( 1.856635870143714369E-15, -6.512201999358345942E-17, 0.5317616478393928370 ) ) ;
#143 = DIRECTION ( 'NONE',  ( -4.275831445896958607E-31, -1.000000000000000000, -1.224646799147353207E-16 ) ) ;
#144 = FACE_OUTER_BOUND ( 'NONE', #202, .T. ) ;
#145 = DIRECTION ( 'NONE',  ( -3.491481338843133355E-15, 1.224646799147353207E-16, -1.000000000000000000 ) ) ;
#146 = MECHANICAL_CONTEXT ( 'NONE', #158, 'mechanical' ) ;
#147 = EDGE_CURVE ( 'NONE', #128, #128, #140, .T. ) ;
#148 = PERSON_AND_ORGANIZATION_ROLE ( 'creator' ) ;
#149 = AXIS2_PLACEMENT_3D ( 'NONE', #127, #145, #111 ) ;
#150 = PRODUCT_DEFINITION_FORMATION_WITH_SPECIFIED_SOURCE ( 'ANY', '', #216, .NOT_KNOWN. ) ;
#151 = CALENDAR_DATE ( 2021, 8, 10 ) ;
#152 = CC_DESIGN_SECURITY_CLASSIFICATION ( #31, ( #150 ) ) ;
#153 = EDGE_LOOP ( 'NONE', ( #219 ) ) ;
#154 = APPROVAL ( #78, 'UNSPECIFIED' ) ;
#155 = SHAPE_DEFINITION_REPRESENTATION ( #83, #52 ) ;
#156 = CALENDAR_DATE ( 2021, 8, 10 ) ;
#157 = ADVANCED_FACE ( 'NONE', ( #36 ), #163, .T. ) ;
#158 = APPLICATION_CONTEXT ( 'configuration controlled 3d designs of mechanical parts and assemblies' ) ;
#159 = CYLINDRICAL_SURFACE ( 'NONE', #186, 0.9999999999999988898 ) ;
#160 = DIRECTION ( 'NONE',  ( 0.0000000000000000000, 1.000000000000000000, 0.0000000000000000000 ) ) ;
#161 = CYLINDRICAL_SURFACE ( 'NONE', #149, 0.8849999999999946798 ) ;
#162 = CARTESIAN_POINT ( 'NONE',  ( 1.856635870143714369E-15, -6.512201999358345942E-17, 0.5317616478393928370 ) ) ;
#163 = PLANE ( 'NONE',  #62 ) ;
#164 = CLOSED_SHELL ( 'NONE', ( #61, #108, #157 ) ) ;
#165 = CARTESIAN_POINT ( 'NONE',  ( 1.326762908760390423E-13, 0.7999999999999962697, 38.00000000000000000 ) ) ;
#166 = DATE_AND_TIME ( #180, #115 ) ;
#167 = DIRECTION ( 'NONE',  ( 1.000000000000000000, 0.0000000000000000000, 0.0000000000000000000 ) ) ;
#168 = EDGE_LOOP ( 'NONE', ( #184 ) ) ;
#169 = CIRCLE ( 'NONE', #204, 0.8849999999999957900 ) ;
#170 = EDGE_CURVE ( 'NONE', #195, #195, #43, .T. ) ;
#171 = FACE_OUTER_BOUND ( 'NONE', #185, .T. ) ;
#172 = FACE_OUTER_BOUND ( 'NONE', #136, .T. ) ;
#173 = DIRECTION ( 'NONE',  ( 4.352384055112428215E-31, 1.000000000000000000, 1.225087200548601252E-16 ) ) ;
#174 = PERSON ( 'UNSPECIFIED', 'UNSPECIFIED', 'UNSPECIFIED', ('UNSPECIFIED'), ('UNSPECIFIED'), ('UNSPECIFIED') ) ;
#175 = CARTESIAN_POINT ( 'NONE',  ( 1.319779946082704535E-13, -4.629164900776995227E-15, 37.79999999999999716 ) ) ;
#176 = PLANE ( 'NONE',  #11 ) ;
#177 = PERSON_AND_ORGANIZATION_ROLE ( 'classification_officer' ) ;
#178 = APPROVAL_DATE_TIME ( #166, #154 ) ;
#179 =( NAMED_UNIT ( * ) PLANE_ANGLE_UNIT ( ) SI_UNIT ( $, .RADIAN. ) );
#180 = CALENDAR_DATE ( 2021, 8, 10 ) ;
#181 = CC_DESIGN_DATE_AND_TIME_ASSIGNMENT ( #63, #95, ( #221 ) ) ;
#182 = PERSON_AND_ORGANIZATION ( #174, #205 ) ;
#183 = CC_DESIGN_APPROVAL ( #207, ( #31 ) ) ;
#184 = ORIENTED_EDGE ( 'NONE', *, *, #35, .F. ) ;
#185 = EDGE_LOOP ( 'NONE', ( #50 ) ) ;
#186 = AXIS2_PLACEMENT_3D ( 'NONE', #220, #141, #206 ) ;
#187 = APPROVAL_PERSON_ORGANIZATION ( #4, #154, #27 ) ;
#188 = CARTESIAN_POINT ( 'NONE',  ( 4.189777606611760657E-14, -1.469576158976824144E-15, 12.00000000000000178 ) ) ;
#189 = DIRECTION ( 'NONE',  ( 0.0000000000000000000, 1.000000000000000000, 0.0000000000000000000 ) ) ;
#190 = DIRECTION ( 'NONE',  ( 0.0000000000000000000, 1.000000000000000000, 0.0000000000000000000 ) ) ;
#191 = DIRECTION ( 'NONE',  ( -3.491481338843133355E-15, 1.224646799147353207E-16, -1.000000000000000000 ) ) ;
#192 = FACE_BOUND ( 'NONE', #137, .T. ) ;
#193 = PERSON_AND_ORGANIZATION ( #174, #205 ) ;
#194 = AXIS2_PLACEMENT_3D ( 'NONE', #175, #2, #160 ) ;
#195 = VERTEX_POINT ( 'NONE', #165 ) ;
#196 = COORDINATED_UNIVERSAL_TIME_OFFSET ( 1, 0, .AHEAD. ) ;
#197 = SECURITY_CLASSIFICATION_LEVEL ( 'unclassified' ) ;
#198 = AXIS2_PLACEMENT_3D ( 'NONE', #188, #124, #190 ) ;
#199 = ADVANCED_FACE ( 'NONE', ( #3, #56 ), #20, .T. ) ;
#200 = CC_DESIGN_APPROVAL ( #154, ( #221 ) ) ;
#201 = ORIENTED_EDGE ( 'NONE', *, *, #170, .F. ) ;
#202 = EDGE_LOOP ( 'NONE', ( #122 ) ) ;
#203 = CONICAL_SURFACE ( 'NONE', #114, 0.8849999999999936806, 1.029744258676649649 ) ;
#204 = AXIS2_PLACEMENT_3D ( 'NONE', #89, #211, #109 ) ;
#205 = ORGANIZATION ( 'UNSPECIFIED', 'UNSPECIFIED', '' ) ;
#206 = DIRECTION ( 'NONE',  ( 4.275831445896957731E-31, 1.000000000000000000, 1.224646799147353454E-16 ) ) ;
#207 = APPROVAL ( #103, 'UNSPECIFIED' ) ;
#208 = CARTESIAN_POINT ( 'NONE',  ( 4.189777606611760026E-14, 6.636437038278665724E-33, 12.00000000000000000 ) ) ;
#209 = DIRECTION ( 'NONE',  ( -3.491481338843133355E-15, 1.224646799147353207E-16, -1.000000000000000000 ) ) ;
#210 = FACE_OUTER_BOUND ( 'NONE', #68, .T. ) ;
#211 = DIRECTION ( 'NONE',  ( -3.491481338843133355E-15, 1.224646799147353207E-16, -1.000000000000000000 ) ) ;
#212 = ADVANCED_FACE ( 'NONE', ( #210, #172 ), #159, .T. ) ;
#213 = APPROVAL_STATUS ( 'not_yet_approved' ) ;
#214 = MANIFOLD_SOLID_BREP ( 'Corps-Déplacer/Copier1[2]', #164 ) ;
#215 = UNCERTAINTY_MEASURE_WITH_UNIT (LENGTH_MEASURE( 1.000000000000000082E-05 ), #60, 'distance_accuracy_value', 'NONE');
#216 = PRODUCT ( '55428', '55428', '', ( #146 ) ) ;
#217 = EDGE_LOOP ( 'NONE', ( #201 ) ) ;
#218 = APPROVAL_PERSON_ORGANIZATION ( #10, #37, #9 ) ;
#219 = ORIENTED_EDGE ( 'NONE', *, *, #54, .F. ) ;
#220 = CARTESIAN_POINT ( 'NONE',  ( 0.0000000000000000000, 0.0000000000000000000, 0.0000000000000000000 ) ) ;
#221 = PRODUCT_DEFINITION ( 'UNKNOWN', '', #150, #47 ) ;
#222 = AXIS2_PLACEMENT_3D ( 'NONE', #92, #77, #167 ) ;
#223 = VERTEX_POINT ( 'NONE', #116 ) ;
ENDSEC;
END-ISO-10303-21;
