ISO-10303-21;
HEADER;
FILE_DESCRIPTION (( 'STEP AP203' ),
    '1' );
FILE_NAME ('55427.step',
    '2021-10-08T05:15:47',
    ( '' ),
    ( '' ),
    'SwSTEP 2.0',
    'SolidWorks 2019',
    '' );
FILE_SCHEMA (( 'CONFIG_CONTROL_DESIGN' ));
ENDSEC;

DATA;
#1 = CARTESIAN_POINT ( 'NONE',  ( 0.0000000000000000000, 0.0000000000000000000, 0.0000000000000000000 ) ) ;
#2 = FACE_OUTER_BOUND ( 'NONE', #197, .T. ) ;
#3 = PERSON_AND_ORGANIZATION ( #204, #72 ) ;
#4 = CC_DESIGN_DATE_AND_TIME_ASSIGNMENT ( #177, #27, ( #58 ) ) ;
#5 = DIRECTION ( 'NONE',  ( -3.491481338843133355E-15, 1.224646799147353207E-16, -1.000000000000000000 ) ) ;
#6 = MECHANICAL_CONTEXT ( 'NONE', #46, 'mechanical' ) ;
#7 = VERTEX_POINT ( 'NONE', #15 ) ;
#8 = DIRECTION ( 'NONE',  ( 4.275831445896958607E-31, 1.000000000000000000, 1.224646799147353207E-16 ) ) ;
#9 = CC_DESIGN_PERSON_AND_ORGANIZATION_ASSIGNMENT ( #180, #60, ( #191 ) ) ;
#10 = EDGE_LOOP ( 'NONE', ( #214 ) ) ;
#11 = FACE_BOUND ( 'NONE', #165, .T. ) ;
#12 = CALENDAR_DATE ( 2021, 8, 10 ) ;
#13 = ADVANCED_FACE ( 'NONE', ( #2, #134 ), #187, .T. ) ;
#14 = ORIENTED_EDGE ( 'NONE', *, *, #32, .F. ) ;
#15 = CARTESIAN_POINT ( 'NONE',  ( 4.265370395018699528E-14, 0.9999999999999954481, 12.21650635094611737 ) ) ;
#16 = CC_DESIGN_APPROVAL ( #44, ( #191 ) ) ;
#17 = CARTESIAN_POINT ( 'NONE',  ( 1.319779946082704535E-13, 0.9999999999999963363, 37.79999999999999716 ) ) ;
#18 = EDGE_LOOP ( 'NONE', ( #50 ) ) ;
#19 = COORDINATED_UNIVERSAL_TIME_OFFSET ( 1, 0, .AHEAD. ) ;
#20 = VERTEX_POINT ( 'NONE', #143 ) ;
#21 = AXIS2_PLACEMENT_3D ( 'NONE', #148, #64, #93 ) ;
#22 = CC_DESIGN_SECURITY_CLASSIFICATION ( #58, ( #191 ) ) ;
#23 = EDGE_LOOP ( 'NONE', ( #99 ) ) ;
#24 = PERSON_AND_ORGANIZATION ( #204, #72 ) ;
#25 = APPROVAL ( #137, 'UNSPECIFIED' ) ;
#26 = APPROVAL_STATUS ( 'not_yet_approved' ) ;
#27 = DATE_TIME_ROLE ( 'classification_date' ) ;
#28 = DIRECTION ( 'NONE',  ( -3.491481338843133355E-15, 1.224646799147353207E-16, -1.000000000000000000 ) ) ;
#29 = PRODUCT ( '55427', '55427', '', ( #6 ) ) ;
#30 = PERSON_AND_ORGANIZATION_ROLE ( 'creator' ) ;
#31 = EDGE_LOOP ( 'NONE', ( #184 ) ) ;
#32 = EDGE_CURVE ( 'NONE', #105, #105, #222, .T. ) ;
#33 = EDGE_LOOP ( 'NONE', ( #138 ) ) ;
#34 = EDGE_CURVE ( 'NONE', #20, #20, #155, .T. ) ;
#35 = CARTESIAN_POINT ( 'NONE',  ( 1.326762908760390423E-13, 5.999039130647367482E-33, 38.00000000000000000 ) ) ;
#36 = DIRECTION ( 'NONE',  ( -4.275831445896958607E-31, -1.000000000000000000, -1.224646799147353207E-16 ) ) ;
#37 = DATE_AND_TIME ( #203, #136 ) ;
#38 = COORDINATED_UNIVERSAL_TIME_OFFSET ( 1, 0, .AHEAD. ) ;
#39 = DIRECTION ( 'NONE',  ( 0.0000000000000000000, 0.0000000000000000000, 1.000000000000000000 ) ) ;
#40 = EDGE_LOOP ( 'NONE', ( #104 ) ) ;
#41 = DIRECTION ( 'NONE',  ( 0.0000000000000000000, -1.000000000000000000, 0.0000000000000000000 ) ) ;
#42 = DATE_AND_TIME ( #12, #119 ) ;
#43 = EDGE_LOOP ( 'NONE', ( #188 ) ) ;
#44 = APPROVAL ( #107, 'UNSPECIFIED' ) ;
#45 = AXIS2_PLACEMENT_3D ( 'NONE', #178, #208, #112 ) ;
#46 = APPLICATION_CONTEXT ( 'configuration controlled 3d designs of mechanical parts and assemblies' ) ;
#47 = FACE_OUTER_BOUND ( 'NONE', #10, .T. ) ;
#48 = AXIS2_PLACEMENT_3D ( 'NONE', #88, #218, #41 ) ;
#49 = FACE_OUTER_BOUND ( 'NONE', #18, .T. ) ;
#50 = ORIENTED_EDGE ( 'NONE', *, *, #69, .T. ) ;
#51 = COORDINATED_UNIVERSAL_TIME_OFFSET ( 1, 0, .AHEAD. ) ;
#52 = DATE_TIME_ROLE ( 'creation_date' ) ;
#53 = CIRCLE ( 'NONE', #158, 0.8749999999999944489 ) ;
#54 = CARTESIAN_POINT ( 'NONE',  ( 4.189777606611760026E-14, 0.8749999999999930056, 12.00000000000000000 ) ) ;
#55 = DIRECTION ( 'NONE',  ( 4.275831445896958607E-31, 1.000000000000000000, 1.224646799147353207E-16 ) ) ;
#56 = PERSON_AND_ORGANIZATION ( #204, #72 ) ;
#57 = CONICAL_SURFACE ( 'NONE', #45, 0.8749999999999936717, 1.029744258676649871 ) ;
#58 = SECURITY_CLASSIFICATION ( '', '', #182 ) ;
#59 = CC_DESIGN_PERSON_AND_ORGANIZATION_ASSIGNMENT ( #56, #30, ( #191 ) ) ;
#60 = PERSON_AND_ORGANIZATION_ROLE ( 'design_supplier' ) ;
#61 = MANIFOLD_SOLID_BREP ( 'Corps-Déplacer/Copier1[2]', #100 ) ;
#62 = EDGE_LOOP ( 'NONE', ( #81 ) ) ;
#63 = PRODUCT_DEFINITION ( 'UNKNOWN', '', #191, #113 ) ;
#64 = DIRECTION ( 'NONE',  ( -3.491481338843133355E-15, 1.224646799147353207E-16, -1.000000000000000000 ) ) ;
#65 = CARTESIAN_POINT ( 'NONE',  ( 1.835656933757908620E-15, -6.438617795975762161E-17, 0.5257530416491169589 ) ) ;
#66 = PLANE ( 'NONE',  #122 ) ;
#67 = CYLINDRICAL_SURFACE ( 'NONE', #95, 0.9999999999999988898 ) ;
#68 = PERSON_AND_ORGANIZATION ( #204, #72 ) ;
#69 = EDGE_CURVE ( 'NONE', #123, #123, #124, .T. ) ;
#70 = APPLICATION_PROTOCOL_DEFINITION ( 'international standard', 'config_control_design', 1994, #46 ) ;
#71 = PERSON_AND_ORGANIZATION_ROLE ( 'creator' ) ;
#72 = ORGANIZATION ( 'UNSPECIFIED', 'UNSPECIFIED', '' ) ;
#73 = CARTESIAN_POINT ( 'NONE',  ( 1.319779946082704535E-13, -4.629164900776995227E-15, 37.79999999999999716 ) ) ;
#74 = ADVANCED_FACE ( 'NONE', ( #126, #86 ), #67, .T. ) ;
#75 = CARTESIAN_POINT ( 'NONE',  ( 4.189777606611760026E-14, -1.469576158976823947E-15, 12.00000000000000000 ) ) ;
#76 = PLANE ( 'NONE',  #91 ) ;
#77 = COORDINATED_UNIVERSAL_TIME_OFFSET ( 1, 0, .AHEAD. ) ;
#78 = APPROVAL_DATE_TIME ( #42, #135 ) ;
#79 = AXIS2_PLACEMENT_3D ( 'NONE', #147, #195, #117 ) ;
#80 = LOCAL_TIME ( 7, 15, 47.00000000000000000, #19 ) ;
#81 = ORIENTED_EDGE ( 'NONE', *, *, #140, .T. ) ;
#82 = FACE_OUTER_BOUND ( 'NONE', #40, .T. ) ;
#83 = CC_DESIGN_DATE_AND_TIME_ASSIGNMENT ( #37, #52, ( #63 ) ) ;
#84 = LOCAL_TIME ( 7, 15, 47.00000000000000000, #77 ) ;
#85 = APPROVAL_DATE_TIME ( #170, #25 ) ;
#86 = FACE_OUTER_BOUND ( 'NONE', #102, .T. ) ;
#87 = CALENDAR_DATE ( 2021, 8, 10 ) ;
#88 = CARTESIAN_POINT ( 'NONE',  ( 4.265370395018699528E-14, -1.496090539944947489E-15, 12.21650635094611737 ) ) ;
#89 = DIRECTION ( 'NONE',  ( -3.491481338843133355E-15, 1.224646799147353207E-16, -1.000000000000000000 ) ) ;
#90 = DIRECTION ( 'NONE',  ( -3.491481338843133355E-15, 1.224646799147353207E-16, -1.000000000000000000 ) ) ;
#91 = AXIS2_PLACEMENT_3D ( 'NONE', #35, #90, #55 ) ;
#92 = APPROVAL_PERSON_ORGANIZATION ( #68, #25, #202 ) ;
#93 = DIRECTION ( 'NONE',  ( 0.0000000000000000000, 1.000000000000000000, 0.0000000000000000000 ) ) ;
#94 = APPROVAL_ROLE ( '' ) ;
#95 = AXIS2_PLACEMENT_3D ( 'NONE', #118, #5, #190 ) ;
#96 = DIRECTION ( 'NONE',  ( 0.0000000000000000000, 1.000000000000000000, 0.0000000000000000000 ) ) ;
#97 = PERSON_AND_ORGANIZATION_ROLE ( 'classification_officer' ) ;
#98 = ADVANCED_BREP_SHAPE_REPRESENTATION ( '55427', ( #130, #61, #150 ), #131 ) ;
#99 = ORIENTED_EDGE ( 'NONE', *, *, #34, .T. ) ;
#100 = CLOSED_SHELL ( 'NONE', ( #125, #13, #194 ) ) ;
#101 = LOCAL_TIME ( 7, 15, 47.00000000000000000, #51 ) ;
#102 = EDGE_LOOP ( 'NONE', ( #121 ) ) ;
#103 = EDGE_CURVE ( 'NONE', #7, #7, #217, .T. ) ;
#104 = ORIENTED_EDGE ( 'NONE', *, *, #34, .F. ) ;
#105 = VERTEX_POINT ( 'NONE', #120 ) ;
#106 = CALENDAR_DATE ( 2021, 8, 10 ) ;
#107 = APPROVAL_STATUS ( 'not_yet_approved' ) ;
#108 = ADVANCED_FACE ( 'NONE', ( #49 ), #66, .F. ) ;
#109 = DIRECTION ( 'NONE',  ( 0.0000000000000000000, 1.000000000000000000, 0.0000000000000000000 ) ) ;
#110 = DIRECTION ( 'NONE',  ( 1.000000000000000000, 0.0000000000000000000, 0.0000000000000000000 ) ) ;
#111 = AXIS2_PLACEMENT_3D ( 'NONE', #219, #154, #36 ) ;
#112 = DIRECTION ( 'NONE',  ( -4.402125587170856461E-31, -1.000000000000000000, -1.239088197126299692E-16 ) ) ;
#113 = DESIGN_CONTEXT ( 'detailed design', #127, 'design' ) ;
#114 = PERSON_AND_ORGANIZATION ( #204, #72 ) ;
#115 = APPROVAL_PERSON_ORGANIZATION ( #192, #44, #172 ) ;
#116 = FACE_OUTER_BOUND ( 'NONE', #43, .T. ) ;
#117 = DIRECTION ( 'NONE',  ( 0.0000000000000000000, 1.000000000000000000, 0.0000000000000000000 ) ) ;
#118 = CARTESIAN_POINT ( 'NONE',  ( 0.0000000000000000000, 0.0000000000000000000, 0.0000000000000000000 ) ) ;
#119 = LOCAL_TIME ( 7, 15, 47.00000000000000000, #196 ) ;
#120 = CARTESIAN_POINT ( 'NONE',  ( 1.835656933757909014E-15, 0.8749999999999935607, 0.5257530416491170699 ) ) ;
#121 = ORIENTED_EDGE ( 'NONE', *, *, #209, .T. ) ;
#122 = AXIS2_PLACEMENT_3D ( 'NONE', #166, #200, #185 ) ;
#123 = VERTEX_POINT ( 'NONE', #142 ) ;
#124 = CIRCLE ( 'NONE', #162, 0.8749999999999944489 ) ;
#125 = ADVANCED_FACE ( 'NONE', ( #47 ), #57, .T. ) ;
#126 = FACE_OUTER_BOUND ( 'NONE', #220, .T. ) ;
#127 = APPLICATION_CONTEXT ( 'configuration controlled 3d designs of mechanical parts and assemblies' ) ;
#128 = FACE_OUTER_BOUND ( 'NONE', #31, .T. ) ;
#129 = CALENDAR_DATE ( 2021, 8, 10 ) ;
#130 = MANIFOLD_SOLID_BREP ( 'Corps-Déplacer/Copier1[1]', #175 ) ;
#131 =( GEOMETRIC_REPRESENTATION_CONTEXT ( 3 ) GLOBAL_UNCERTAINTY_ASSIGNED_CONTEXT ( ( #181 ) ) GLOBAL_UNIT_ASSIGNED_CONTEXT ( ( #221, #199, #168 ) ) REPRESENTATION_CONTEXT ( 'NONE', 'WORKASPACE' ) );
#132 = DIRECTION ( 'NONE',  ( 4.402125587170856461E-31, 1.000000000000000000, 1.239088197126299692E-16 ) ) ;
#133 = ORIENTED_EDGE ( 'NONE', *, *, #103, .F. ) ;
#134 = FACE_OUTER_BOUND ( 'NONE', #62, .T. ) ;
#135 = APPROVAL ( #26, 'UNSPECIFIED' ) ;
#136 = LOCAL_TIME ( 7, 15, 47.00000000000000000, #38 ) ;
#137 = APPROVAL_STATUS ( 'not_yet_approved' ) ;
#138 = ORIENTED_EDGE ( 'NONE', *, *, #103, .T. ) ;
#139 = APPLICATION_PROTOCOL_DEFINITION ( 'international standard', 'config_control_design', 1994, #127 ) ;
#140 = EDGE_CURVE ( 'NONE', #160, #160, #53, .T. ) ;
#141 = CARTESIAN_POINT ( 'NONE',  ( 0.0000000000000000000, 0.0000000000000000000, 0.0000000000000000000 ) ) ;
#142 = CARTESIAN_POINT ( 'NONE',  ( 4.189777606611760026E-14, 0.8749999999999930056, 12.00000000000000000 ) ) ;
#143 = CARTESIAN_POINT ( 'NONE',  ( 1.326762908760390423E-13, 0.7999999999999962697, 38.00000000000000000 ) ) ;
#144 = ADVANCED_FACE ( 'NONE', ( #116, #153 ), #212, .T. ) ;
#145 = AXIS2_PLACEMENT_3D ( 'NONE', #65, #169, #132 ) ;
#146 = CIRCLE ( 'NONE', #213, 1.000000000000000888 ) ;
#147 = CARTESIAN_POINT ( 'NONE',  ( 4.265370395018699528E-14, -1.496090539944947489E-15, 12.21650635094611737 ) ) ;
#148 = CARTESIAN_POINT ( 'NONE',  ( 1.326762908760390423E-13, -4.653657836759941941E-15, 38.00000000000000000 ) ) ;
#149 = AXIS2_PLACEMENT_3D ( 'NONE', #173, #89, #193 ) ;
#150 = AXIS2_PLACEMENT_3D ( 'NONE', #1, #39, #110 ) ;
#151 = ADVANCED_FACE ( 'NONE', ( #11, #206 ), #176, .T. ) ;
#152 = ORIENTED_EDGE ( 'NONE', *, *, #69, .F. ) ;
#153 = FACE_BOUND ( 'NONE', #23, .T. ) ;
#154 = DIRECTION ( 'NONE',  ( 3.491481338843133355E-15, -1.224646799147353207E-16, 1.000000000000000000 ) ) ;
#155 = CIRCLE ( 'NONE', #21, 0.8000000000000009326 ) ;
#156 = DIRECTION ( 'NONE',  ( -3.491481338843133355E-15, 1.224646799147353207E-16, -1.000000000000000000 ) ) ;
#157 = DATE_AND_TIME ( #87, #80 ) ;
#158 = AXIS2_PLACEMENT_3D ( 'NONE', #161, #183, #211 ) ;
#159 = CC_DESIGN_APPROVAL ( #135, ( #58 ) ) ;
#160 = VERTEX_POINT ( 'NONE', #54 ) ;
#161 = CARTESIAN_POINT ( 'NONE',  ( 4.189777606611760026E-14, -1.469576158976823947E-15, 12.00000000000000000 ) ) ;
#162 = AXIS2_PLACEMENT_3D ( 'NONE', #75, #28, #96 ) ;
#163 = PERSON_AND_ORGANIZATION ( #204, #72 ) ;
#164 = CC_DESIGN_PERSON_AND_ORGANIZATION_ASSIGNMENT ( #24, #189, ( #29 ) ) ;
#165 = EDGE_LOOP ( 'NONE', ( #152 ) ) ;
#166 = CARTESIAN_POINT ( 'NONE',  ( 4.189777606611760026E-14, 6.561449049145564085E-33, 12.00000000000000000 ) ) ;
#167 = PRODUCT_RELATED_PRODUCT_CATEGORY ( 'detail', '', ( #29 ) ) ;
#168 =( NAMED_UNIT ( * ) SI_UNIT ( $, .STERADIAN. ) SOLID_ANGLE_UNIT ( ) );
#169 = DIRECTION ( 'NONE',  ( -3.491481338843133355E-15, 1.224646799147353207E-16, -1.000000000000000000 ) ) ;
#170 = DATE_AND_TIME ( #106, #101 ) ;
#171 = DIRECTION ( 'NONE',  ( -3.491481338843133355E-15, 1.224646799147353207E-16, -1.000000000000000000 ) ) ;
#172 = APPROVAL_ROLE ( '' ) ;
#173 = CARTESIAN_POINT ( 'NONE',  ( 1.326762908760390423E-13, -4.653657836759941941E-15, 38.00000000000000000 ) ) ;
#174 = VERTEX_POINT ( 'NONE', #17 ) ;
#175 = CLOSED_SHELL ( 'NONE', ( #108, #151, #74, #144, #186 ) ) ;
#176 = CONICAL_SURFACE ( 'NONE', #48, 0.9999999999999970024, 0.5235987755982915992 ) ;
#177 = DATE_AND_TIME ( #129, #84 ) ;
#178 = CARTESIAN_POINT ( 'NONE',  ( 1.835656933757908620E-15, -6.438617795975762161E-17, 0.5257530416491169589 ) ) ;
#179 = PLANE ( 'NONE',  #111 ) ;
#180 = PERSON_AND_ORGANIZATION ( #204, #72 ) ;
#181 = UNCERTAINTY_MEASURE_WITH_UNIT (LENGTH_MEASURE( 1.000000000000000082E-05 ), #221, 'distance_accuracy_value', 'NONE');
#182 = SECURITY_CLASSIFICATION_LEVEL ( 'unclassified' ) ;
#183 = DIRECTION ( 'NONE',  ( -3.491481338843133355E-15, 1.224646799147353207E-16, -1.000000000000000000 ) ) ;
#184 = ORIENTED_EDGE ( 'NONE', *, *, #140, .F. ) ;
#185 = DIRECTION ( 'NONE',  ( -4.275831445896958607E-31, -1.000000000000000000, -1.224646799147353207E-16 ) ) ;
#186 = ADVANCED_FACE ( 'NONE', ( #82 ), #76, .F. ) ;
#187 = CYLINDRICAL_SURFACE ( 'NONE', #205, 0.8749999999999940048 ) ;
#188 = ORIENTED_EDGE ( 'NONE', *, *, #209, .F. ) ;
#189 = PERSON_AND_ORGANIZATION_ROLE ( 'design_owner' ) ;
#190 = DIRECTION ( 'NONE',  ( 4.275831445896957731E-31, 1.000000000000000000, 1.224646799147353454E-16 ) ) ;
#191 = PRODUCT_DEFINITION_FORMATION_WITH_SPECIFIED_SOURCE ( 'ANY', '', #29, .NOT_KNOWN. ) ;
#192 = PERSON_AND_ORGANIZATION ( #204, #72 ) ;
#193 = DIRECTION ( 'NONE',  ( 0.0000000000000000000, 1.000000000000000000, 0.0000000000000000000 ) ) ;
#194 = ADVANCED_FACE ( 'NONE', ( #128 ), #179, .T. ) ;
#195 = DIRECTION ( 'NONE',  ( -3.491481338843133355E-15, 1.224646799147353207E-16, -1.000000000000000000 ) ) ;
#196 = COORDINATED_UNIVERSAL_TIME_OFFSET ( 1, 0, .AHEAD. ) ;
#197 = EDGE_LOOP ( 'NONE', ( #14 ) ) ;
#198 = APPROVAL_PERSON_ORGANIZATION ( #163, #135, #94 ) ;
#199 =( NAMED_UNIT ( * ) PLANE_ANGLE_UNIT ( ) SI_UNIT ( $, .RADIAN. ) );
#200 = DIRECTION ( 'NONE',  ( 3.491481338843133355E-15, -1.224646799147353207E-16, 1.000000000000000000 ) ) ;
#201 = CC_DESIGN_PERSON_AND_ORGANIZATION_ASSIGNMENT ( #3, #71, ( #63 ) ) ;
#202 = APPROVAL_ROLE ( '' ) ;
#203 = CALENDAR_DATE ( 2021, 8, 10 ) ;
#204 = PERSON ( 'UNSPECIFIED', 'UNSPECIFIED', 'UNSPECIFIED', ('UNSPECIFIED'), ('UNSPECIFIED'), ('UNSPECIFIED') ) ;
#205 = AXIS2_PLACEMENT_3D ( 'NONE', #141, #171, #8 ) ;
#206 = FACE_OUTER_BOUND ( 'NONE', #33, .T. ) ;
#207 = APPROVAL_DATE_TIME ( #157, #44 ) ;
#208 = DIRECTION ( 'NONE',  ( 3.491481338843133355E-15, -1.224646799147353207E-16, 1.000000000000000000 ) ) ;
#209 = EDGE_CURVE ( 'NONE', #174, #174, #146, .T. ) ;
#210 = SHAPE_DEFINITION_REPRESENTATION ( #215, #98 ) ;
#211 = DIRECTION ( 'NONE',  ( 0.0000000000000000000, 1.000000000000000000, 0.0000000000000000000 ) ) ;
#212 = CONICAL_SURFACE ( 'NONE', #149, 0.8000000000000009326, 0.7853981633974512766 ) ;
#213 = AXIS2_PLACEMENT_3D ( 'NONE', #73, #156, #109 ) ;
#214 = ORIENTED_EDGE ( 'NONE', *, *, #32, .T. ) ;
#215 = PRODUCT_DEFINITION_SHAPE ( 'NONE', 'NONE',  #63 ) ;
#216 = CC_DESIGN_PERSON_AND_ORGANIZATION_ASSIGNMENT ( #114, #97, ( #58 ) ) ;
#217 = CIRCLE ( 'NONE', #79, 0.9999999999999970024 ) ;
#218 = DIRECTION ( 'NONE',  ( 3.491481338843133355E-15, -1.224646799147353207E-16, 1.000000000000000000 ) ) ;
#219 = CARTESIAN_POINT ( 'NONE',  ( 4.189777606611760026E-14, 6.561449049145564085E-33, 12.00000000000000000 ) ) ;
#220 = EDGE_LOOP ( 'NONE', ( #133 ) ) ;
#221 =( LENGTH_UNIT ( ) NAMED_UNIT ( * ) SI_UNIT ( .MILLI., .METRE. ) );
#222 = CIRCLE ( 'NONE', #145, 0.8749999999999936717 ) ;
#223 = CC_DESIGN_APPROVAL ( #25, ( #63 ) ) ;
ENDSEC;
END-ISO-10303-21;
