ISO-10303-21;
HEADER;
FILE_DESCRIPTION (( 'STEP AP203' ),
    '1' );
FILE_NAME ('55426.step',
    '2021-10-08T05:15:46',
    ( '' ),
    ( '' ),
    'SwSTEP 2.0',
    'SolidWorks 2019',
    '' );
FILE_SCHEMA (( 'CONFIG_CONTROL_DESIGN' ));
ENDSEC;

DATA;
#1 = COORDINATED_UNIVERSAL_TIME_OFFSET ( 1, 0, .AHEAD. ) ;
#2 = EDGE_CURVE ( 'NONE', #93, #93, #56, .T. ) ;
#3 = APPROVAL_STATUS ( 'not_yet_approved' ) ;
#4 = EDGE_CURVE ( 'NONE', #95, #95, #62, .T. ) ;
#5 = CARTESIAN_POINT ( 'NONE',  ( 1.326762908760390423E-13, 5.999039130647367482E-33, 38.00000000000000000 ) ) ;
#6 = PERSON_AND_ORGANIZATION_ROLE ( 'creator' ) ;
#7 = CIRCLE ( 'NONE', #116, 0.8000000000000009326 ) ;
#8 = EDGE_LOOP ( 'NONE', ( #11 ) ) ;
#9 = CC_DESIGN_SECURITY_CLASSIFICATION ( #129, ( #169 ) ) ;
#10 = EDGE_LOOP ( 'NONE', ( #207 ) ) ;
#11 = ORIENTED_EDGE ( 'NONE', *, *, #70, .F. ) ;
#12 = APPROVAL ( #3, 'UNSPECIFIED' ) ;
#13 = FACE_OUTER_BOUND ( 'NONE', #208, .T. ) ;
#14 = CARTESIAN_POINT ( 'NONE',  ( 4.189777606611760026E-14, -1.469576158976823947E-15, 12.00000000000000000 ) ) ;
#15 = PERSON_AND_ORGANIZATION ( #66, #63 ) ;
#16 = PERSON_AND_ORGANIZATION_ROLE ( 'design_owner' ) ;
#17 = APPROVAL_PERSON_ORGANIZATION ( #29, #105, #92 ) ;
#18 = CONICAL_SURFACE ( 'NONE', #38, 0.8699999999999935563, 1.029744258676649649 ) ;
#19 = PERSON_AND_ORGANIZATION ( #66, #63 ) ;
#20 = PRODUCT ( '55426', '55426', '', ( #112 ) ) ;
#21 = ORIENTED_EDGE ( 'NONE', *, *, #4, .F. ) ;
#22 = DIRECTION ( 'NONE',  ( -3.491481338843133355E-15, 1.224646799147353207E-16, -1.000000000000000000 ) ) ;
#23 = COORDINATED_UNIVERSAL_TIME_OFFSET ( 1, 0, .AHEAD. ) ;
#24 = ADVANCED_FACE ( 'NONE', ( #13, #50 ), #120, .T. ) ;
#25 = ORIENTED_EDGE ( 'NONE', *, *, #216, .T. ) ;
#26 = DIRECTION ( 'NONE',  ( 0.0000000000000000000, 1.000000000000000000, 0.0000000000000000000 ) ) ;
#27 = CLOSED_SHELL ( 'NONE', ( #60, #82, #48, #168, #118 ) ) ;
#28 = CC_DESIGN_APPROVAL ( #105, ( #147 ) ) ;
#29 = PERSON_AND_ORGANIZATION ( #66, #63 ) ;
#30 = DIRECTION ( 'NONE',  ( 0.0000000000000000000, 1.000000000000000000, 0.0000000000000000000 ) ) ;
#31 = CARTESIAN_POINT ( 'NONE',  ( 4.268394106554977032E-14, 0.9999999999999954481, 12.22516660498396313 ) ) ;
#32 = APPLICATION_PROTOCOL_DEFINITION ( 'international standard', 'config_control_design', 1994, #184 ) ;
#33 = CC_DESIGN_PERSON_AND_ORGANIZATION_ASSIGNMENT ( #15, #16, ( #20 ) ) ;
#34 = DIRECTION ( 'NONE',  ( 1.000000000000000000, 0.0000000000000000000, 0.0000000000000000000 ) ) ;
#35 = CARTESIAN_POINT ( 'NONE',  ( 4.268394106554977032E-14, -1.497151115183672533E-15, 12.22516660498396313 ) ) ;
#36 = CIRCLE ( 'NONE', #170, 0.8699999999999955547 ) ;
#37 = ADVANCED_BREP_SHAPE_REPRESENTATION ( '55426', ( #187, #114, #52 ), #57 ) ;
#38 = AXIS2_PLACEMENT_3D ( 'NONE', #64, #40, #67 ) ;
#39 = APPROVAL ( #182, 'UNSPECIFIED' ) ;
#40 = DIRECTION ( 'NONE',  ( 3.491481338843133355E-15, -1.224646799147353207E-16, 1.000000000000000000 ) ) ;
#41 = EDGE_CURVE ( 'NONE', #215, #215, #7, .T. ) ;
#42 = CALENDAR_DATE ( 2021, 8, 10 ) ;
#43 = CARTESIAN_POINT ( 'NONE',  ( 4.189777606611760026E-14, 6.523955054579024214E-33, 12.00000000000000000 ) ) ;
#44 = CONICAL_SURFACE ( 'NONE', #202, 0.9999999999999970024, 0.5235987755982867142 ) ;
#45 = ORIENTED_EDGE ( 'NONE', *, *, #4, .T. ) ;
#46 = UNCERTAINTY_MEASURE_WITH_UNIT (LENGTH_MEASURE( 1.000000000000000082E-05 ), #165, 'distance_accuracy_value', 'NONE');
#47 = ORIENTED_EDGE ( 'NONE', *, *, #70, .T. ) ;
#48 = ADVANCED_FACE ( 'NONE', ( #122, #68 ), #203, .T. ) ;
#49 = FACE_OUTER_BOUND ( 'NONE', #106, .T. ) ;
#50 = FACE_OUTER_BOUND ( 'NONE', #160, .T. ) ;
#51 = APPROVAL_DATE_TIME ( #104, #105 ) ;
#52 = AXIS2_PLACEMENT_3D ( 'NONE', #167, #198, #34 ) ;
#53 = DIRECTION ( 'NONE',  ( 4.427425159510919504E-31, 1.000000000000000000, 1.246209393661508493E-16 ) ) ;
#54 = PLANE ( 'NONE',  #204 ) ;
#55 = CARTESIAN_POINT ( 'NONE',  ( 4.268394106554977032E-14, -1.497151115183672533E-15, 12.22516660498396313 ) ) ;
#56 = CIRCLE ( 'NONE', #185, 0.8699999999999935563 ) ;
#57 =( GEOMETRIC_REPRESENTATION_CONTEXT ( 3 ) GLOBAL_UNCERTAINTY_ASSIGNED_CONTEXT ( ( #46 ) ) GLOBAL_UNIT_ASSIGNED_CONTEXT ( ( #165, #108, #144 ) ) REPRESENTATION_CONTEXT ( 'NONE', 'WORKASPACE' ) );
#58 = APPROVAL_PERSON_ORGANIZATION ( #128, #12, #200 ) ;
#59 = DATE_AND_TIME ( #126, #210 ) ;
#60 = ADVANCED_FACE ( 'NONE', ( #86 ), #156, .F. ) ;
#61 = APPLICATION_PROTOCOL_DEFINITION ( 'international standard', 'config_control_design', 1994, #71 ) ;
#62 = CIRCLE ( 'NONE', #88, 1.000000000000000888 ) ;
#63 = ORGANIZATION ( 'UNSPECIFIED', 'UNSPECIFIED', '' ) ;
#64 = CARTESIAN_POINT ( 'NONE',  ( 1.825167465565006731E-15, -6.401825694284473352E-17, 0.5227487385539792974 ) ) ;
#65 = CC_DESIGN_APPROVAL ( #39, ( #169 ) ) ;
#66 = PERSON ( 'UNSPECIFIED', 'UNSPECIFIED', 'UNSPECIFIED', ('UNSPECIFIED'), ('UNSPECIFIED'), ('UNSPECIFIED') ) ;
#67 = DIRECTION ( 'NONE',  ( -4.427425159510919504E-31, -1.000000000000000000, -1.246209393661508493E-16 ) ) ;
#68 = FACE_OUTER_BOUND ( 'NONE', #161, .T. ) ;
#69 = DIRECTION ( 'NONE',  ( -3.491481338843133355E-15, 1.224646799147353207E-16, -1.000000000000000000 ) ) ;
#70 = EDGE_CURVE ( 'NONE', #130, #130, #36, .T. ) ;
#71 = APPLICATION_CONTEXT ( 'configuration controlled 3d designs of mechanical parts and assemblies' ) ;
#72 = FACE_BOUND ( 'NONE', #10, .T. ) ;
#73 = CARTESIAN_POINT ( 'NONE',  ( 1.319779946082704535E-13, -4.629164900776995227E-15, 37.79999999999999716 ) ) ;
#74 = PERSON_AND_ORGANIZATION_ROLE ( 'creator' ) ;
#75 = PERSON_AND_ORGANIZATION ( #66, #63 ) ;
#76 = DIRECTION ( 'NONE',  ( -4.275831445896958607E-31, -1.000000000000000000, -1.224646799147353207E-16 ) ) ;
#77 = DATE_AND_TIME ( #42, #159 ) ;
#78 = APPROVAL_DATE_TIME ( #59, #12 ) ;
#79 = DATE_TIME_ROLE ( 'classification_date' ) ;
#80 = CC_DESIGN_DATE_AND_TIME_ASSIGNMENT ( #77, #157, ( #147 ) ) ;
#81 = CONICAL_SURFACE ( 'NONE', #219, 0.8000000000000009326, 0.7853981633974512766 ) ;
#82 = ADVANCED_FACE ( 'NONE', ( #127, #113 ), #44, .T. ) ;
#83 = VERTEX_POINT ( 'NONE', #150 ) ;
#84 = CIRCLE ( 'NONE', #171, 0.8699999999999955547 ) ;
#85 = SECURITY_CLASSIFICATION_LEVEL ( 'unclassified' ) ;
#86 = FACE_OUTER_BOUND ( 'NONE', #172, .T. ) ;
#87 = EDGE_LOOP ( 'NONE', ( #220 ) ) ;
#88 = AXIS2_PLACEMENT_3D ( 'NONE', #73, #137, #154 ) ;
#89 = PRODUCT_DEFINITION_SHAPE ( 'NONE', 'NONE',  #147 ) ;
#90 = FACE_OUTER_BOUND ( 'NONE', #136, .T. ) ;
#91 = CARTESIAN_POINT ( 'NONE',  ( 0.0000000000000000000, 0.0000000000000000000, 0.0000000000000000000 ) ) ;
#92 = APPROVAL_ROLE ( '' ) ;
#93 = VERTEX_POINT ( 'NONE', #162 ) ;
#94 = DIRECTION ( 'NONE',  ( 3.491481338843133355E-15, -1.224646799147353207E-16, 1.000000000000000000 ) ) ;
#95 = VERTEX_POINT ( 'NONE', #166 ) ;
#96 = CC_DESIGN_APPROVAL ( #12, ( #129 ) ) ;
#97 = COORDINATED_UNIVERSAL_TIME_OFFSET ( 1, 0, .AHEAD. ) ;
#98 = PERSON_AND_ORGANIZATION_ROLE ( 'design_supplier' ) ;
#99 = PERSON_AND_ORGANIZATION_ROLE ( 'classification_officer' ) ;
#100 = CARTESIAN_POINT ( 'NONE',  ( 1.825167465565006731E-15, -6.401825694284473352E-17, 0.5227487385539792974 ) ) ;
#101 = DIRECTION ( 'NONE',  ( 0.0000000000000000000, 1.000000000000000000, 0.0000000000000000000 ) ) ;
#102 = DESIGN_CONTEXT ( 'detailed design', #71, 'design' ) ;
#103 = DIRECTION ( 'NONE',  ( 4.275831445896958607E-31, 1.000000000000000000, 1.224646799147353207E-16 ) ) ;
#104 = DATE_AND_TIME ( #211, #117 ) ;
#105 = APPROVAL ( #177, 'UNSPECIFIED' ) ;
#106 = EDGE_LOOP ( 'NONE', ( #221 ) ) ;
#107 = DIRECTION ( 'NONE',  ( -3.491481338843133355E-15, 1.224646799147353207E-16, -1.000000000000000000 ) ) ;
#108 =( NAMED_UNIT ( * ) PLANE_ANGLE_UNIT ( ) SI_UNIT ( $, .RADIAN. ) );
#109 = DIRECTION ( 'NONE',  ( -3.491481338843133355E-15, 1.224646799147353207E-16, -1.000000000000000000 ) ) ;
#110 = CARTESIAN_POINT ( 'NONE',  ( 4.189777606611760026E-14, 6.523955054579024214E-33, 12.00000000000000000 ) ) ;
#111 = LOCAL_TIME ( 7, 15, 46.00000000000000000, #97 ) ;
#112 = MECHANICAL_CONTEXT ( 'NONE', #184, 'mechanical' ) ;
#113 = FACE_OUTER_BOUND ( 'NONE', #173, .T. ) ;
#114 = MANIFOLD_SOLID_BREP ( 'Corps-Déplacer/Copier1[2]', #145 ) ;
#115 = CC_DESIGN_PERSON_AND_ORGANIZATION_ASSIGNMENT ( #183, #6, ( #169 ) ) ;
#116 = AXIS2_PLACEMENT_3D ( 'NONE', #205, #191, #195 ) ;
#117 = LOCAL_TIME ( 7, 15, 46.00000000000000000, #23 ) ;
#118 = ADVANCED_FACE ( 'NONE', ( #49 ), #190, .F. ) ;
#119 = CC_DESIGN_PERSON_AND_ORGANIZATION_ASSIGNMENT ( #19, #99, ( #129 ) ) ;
#120 = CYLINDRICAL_SURFACE ( 'NONE', #214, 0.8699999999999945555 ) ;
#121 = DIRECTION ( 'NONE',  ( 0.0000000000000000000, -1.000000000000000000, 0.0000000000000000000 ) ) ;
#122 = FACE_OUTER_BOUND ( 'NONE', #158, .T. ) ;
#123 = CC_DESIGN_PERSON_AND_ORGANIZATION_ASSIGNMENT ( #222, #74, ( #147 ) ) ;
#124 = ORIENTED_EDGE ( 'NONE', *, *, #2, .F. ) ;
#125 = ORIENTED_EDGE ( 'NONE', *, *, #2, .T. ) ;
#126 = CALENDAR_DATE ( 2021, 8, 10 ) ;
#127 = FACE_BOUND ( 'NONE', #8, .T. ) ;
#128 = PERSON_AND_ORGANIZATION ( #66, #63 ) ;
#129 = SECURITY_CLASSIFICATION ( '', '', #85 ) ;
#130 = VERTEX_POINT ( 'NONE', #148 ) ;
#131 = CARTESIAN_POINT ( 'NONE',  ( 1.326762908760390423E-13, 0.7999999999999962697, 38.00000000000000000 ) ) ;
#132 = CC_DESIGN_DATE_AND_TIME_ASSIGNMENT ( #153, #79, ( #129 ) ) ;
#133 = FACE_OUTER_BOUND ( 'NONE', #188, .T. ) ;
#134 = CALENDAR_DATE ( 2021, 8, 10 ) ;
#135 = DIRECTION ( 'NONE',  ( 3.491481338843133355E-15, -1.224646799147353207E-16, 1.000000000000000000 ) ) ;
#136 = EDGE_LOOP ( 'NONE', ( #21 ) ) ;
#137 = DIRECTION ( 'NONE',  ( -3.491481338843133355E-15, 1.224646799147353207E-16, -1.000000000000000000 ) ) ;
#138 = CARTESIAN_POINT ( 'NONE',  ( 4.189777606611760026E-14, -1.469576158976823947E-15, 12.00000000000000000 ) ) ;
#139 = AXIS2_PLACEMENT_3D ( 'NONE', #209, #69, #218 ) ;
#140 = APPROVAL_PERSON_ORGANIZATION ( #142, #39, #155 ) ;
#141 = DIRECTION ( 'NONE',  ( -4.275831445896958607E-31, -1.000000000000000000, -1.224646799147353207E-16 ) ) ;
#142 = PERSON_AND_ORGANIZATION ( #66, #63 ) ;
#143 = DATE_AND_TIME ( #197, #186 ) ;
#144 =( NAMED_UNIT ( * ) SI_UNIT ( $, .STERADIAN. ) SOLID_ANGLE_UNIT ( ) );
#145 = CLOSED_SHELL ( 'NONE', ( #164, #24, #174 ) ) ;
#146 = COORDINATED_UNIVERSAL_TIME_OFFSET ( 1, 0, .AHEAD. ) ;
#147 = PRODUCT_DEFINITION ( 'UNKNOWN', '', #169, #102 ) ;
#148 = CARTESIAN_POINT ( 'NONE',  ( 4.189777606611760026E-14, 0.8699999999999940004, 12.00000000000000000 ) ) ;
#149 = APPROVAL_DATE_TIME ( #143, #39 ) ;
#150 = CARTESIAN_POINT ( 'NONE',  ( 4.189777606611760026E-14, 0.8699999999999940004, 12.00000000000000000 ) ) ;
#151 = AXIS2_PLACEMENT_3D ( 'NONE', #43, #135, #76 ) ;
#152 = DIRECTION ( 'NONE',  ( -3.491481338843133355E-15, 1.224646799147353207E-16, -1.000000000000000000 ) ) ;
#153 = DATE_AND_TIME ( #134, #111 ) ;
#154 = DIRECTION ( 'NONE',  ( 0.0000000000000000000, 1.000000000000000000, 0.0000000000000000000 ) ) ;
#155 = APPROVAL_ROLE ( '' ) ;
#156 = PLANE ( 'NONE',  #151 ) ;
#157 = DATE_TIME_ROLE ( 'creation_date' ) ;
#158 = EDGE_LOOP ( 'NONE', ( #217 ) ) ;
#159 = LOCAL_TIME ( 7, 15, 46.00000000000000000, #146 ) ;
#160 = EDGE_LOOP ( 'NONE', ( #176 ) ) ;
#161 = EDGE_LOOP ( 'NONE', ( #45 ) ) ;
#162 = CARTESIAN_POINT ( 'NONE',  ( 1.825167465565007126E-15, 0.8699999999999934452, 0.5227487385539794085 ) ) ;
#163 = CIRCLE ( 'NONE', #181, 0.9999999999999970024 ) ;
#164 = ADVANCED_FACE ( 'NONE', ( #133 ), #18, .T. ) ;
#165 =( LENGTH_UNIT ( ) NAMED_UNIT ( * ) SI_UNIT ( .MILLI., .METRE. ) );
#166 = CARTESIAN_POINT ( 'NONE',  ( 1.319779946082704535E-13, 0.9999999999999963363, 37.79999999999999716 ) ) ;
#167 = CARTESIAN_POINT ( 'NONE',  ( 0.0000000000000000000, 0.0000000000000000000, 0.0000000000000000000 ) ) ;
#168 = ADVANCED_FACE ( 'NONE', ( #90, #72 ), #81, .T. ) ;
#169 = PRODUCT_DEFINITION_FORMATION_WITH_SPECIFIED_SOURCE ( 'ANY', '', #20, .NOT_KNOWN. ) ;
#170 = AXIS2_PLACEMENT_3D ( 'NONE', #138, #22, #101 ) ;
#171 = AXIS2_PLACEMENT_3D ( 'NONE', #14, #192, #212 ) ;
#172 = EDGE_LOOP ( 'NONE', ( #47 ) ) ;
#173 = EDGE_LOOP ( 'NONE', ( #25 ) ) ;
#174 = ADVANCED_FACE ( 'NONE', ( #223 ), #54, .T. ) ;
#175 = AXIS2_PLACEMENT_3D ( 'NONE', #5, #152, #201 ) ;
#176 = ORIENTED_EDGE ( 'NONE', *, *, #194, .T. ) ;
#177 = APPROVAL_STATUS ( 'not_yet_approved' ) ;
#178 = SHAPE_DEFINITION_REPRESENTATION ( #89, #37 ) ;
#179 = DIRECTION ( 'NONE',  ( 3.491481338843133355E-15, -1.224646799147353207E-16, 1.000000000000000000 ) ) ;
#180 = PRODUCT_RELATED_PRODUCT_CATEGORY ( 'detail', '', ( #20 ) ) ;
#181 = AXIS2_PLACEMENT_3D ( 'NONE', #55, #109, #30 ) ;
#182 = APPROVAL_STATUS ( 'not_yet_approved' ) ;
#183 = PERSON_AND_ORGANIZATION ( #66, #63 ) ;
#184 = APPLICATION_CONTEXT ( 'configuration controlled 3d designs of mechanical parts and assemblies' ) ;
#185 = AXIS2_PLACEMENT_3D ( 'NONE', #100, #107, #53 ) ;
#186 = LOCAL_TIME ( 7, 15, 46.00000000000000000, #1 ) ;
#187 = MANIFOLD_SOLID_BREP ( 'Corps-Déplacer/Copier1[1]', #27 ) ;
#188 = EDGE_LOOP ( 'NONE', ( #125 ) ) ;
#189 = DIRECTION ( 'NONE',  ( -3.491481338843133355E-15, 1.224646799147353207E-16, -1.000000000000000000 ) ) ;
#190 = PLANE ( 'NONE',  #175 ) ;
#191 = DIRECTION ( 'NONE',  ( -3.491481338843133355E-15, 1.224646799147353207E-16, -1.000000000000000000 ) ) ;
#192 = DIRECTION ( 'NONE',  ( -3.491481338843133355E-15, 1.224646799147353207E-16, -1.000000000000000000 ) ) ;
#193 = DIRECTION ( 'NONE',  ( -3.491481338843133355E-15, 1.224646799147353207E-16, -1.000000000000000000 ) ) ;
#194 = EDGE_CURVE ( 'NONE', #83, #83, #84, .T. ) ;
#195 = DIRECTION ( 'NONE',  ( 0.0000000000000000000, 1.000000000000000000, 0.0000000000000000000 ) ) ;
#196 = VERTEX_POINT ( 'NONE', #31 ) ;
#197 = CALENDAR_DATE ( 2021, 8, 10 ) ;
#198 = DIRECTION ( 'NONE',  ( 0.0000000000000000000, 0.0000000000000000000, 1.000000000000000000 ) ) ;
#199 = CC_DESIGN_PERSON_AND_ORGANIZATION_ASSIGNMENT ( #75, #98, ( #169 ) ) ;
#200 = APPROVAL_ROLE ( '' ) ;
#201 = DIRECTION ( 'NONE',  ( 4.275831445896958607E-31, 1.000000000000000000, 1.224646799147353207E-16 ) ) ;
#202 = AXIS2_PLACEMENT_3D ( 'NONE', #35, #94, #121 ) ;
#203 = CYLINDRICAL_SURFACE ( 'NONE', #139, 0.9999999999999988898 ) ;
#204 = AXIS2_PLACEMENT_3D ( 'NONE', #110, #179, #141 ) ;
#205 = CARTESIAN_POINT ( 'NONE',  ( 1.326762908760390423E-13, -4.653657836759941941E-15, 38.00000000000000000 ) ) ;
#206 = COORDINATED_UNIVERSAL_TIME_OFFSET ( 1, 0, .AHEAD. ) ;
#207 = ORIENTED_EDGE ( 'NONE', *, *, #41, .T. ) ;
#208 = EDGE_LOOP ( 'NONE', ( #124 ) ) ;
#209 = CARTESIAN_POINT ( 'NONE',  ( 0.0000000000000000000, 0.0000000000000000000, 0.0000000000000000000 ) ) ;
#210 = LOCAL_TIME ( 7, 15, 46.00000000000000000, #206 ) ;
#211 = CALENDAR_DATE ( 2021, 8, 10 ) ;
#212 = DIRECTION ( 'NONE',  ( 0.0000000000000000000, 1.000000000000000000, 0.0000000000000000000 ) ) ;
#213 = CARTESIAN_POINT ( 'NONE',  ( 1.326762908760390423E-13, -4.653657836759941941E-15, 38.00000000000000000 ) ) ;
#214 = AXIS2_PLACEMENT_3D ( 'NONE', #91, #189, #103 ) ;
#215 = VERTEX_POINT ( 'NONE', #131 ) ;
#216 = EDGE_CURVE ( 'NONE', #196, #196, #163, .T. ) ;
#217 = ORIENTED_EDGE ( 'NONE', *, *, #216, .F. ) ;
#218 = DIRECTION ( 'NONE',  ( 4.275831445896957731E-31, 1.000000000000000000, 1.224646799147353454E-16 ) ) ;
#219 = AXIS2_PLACEMENT_3D ( 'NONE', #213, #193, #26 ) ;
#220 = ORIENTED_EDGE ( 'NONE', *, *, #194, .F. ) ;
#221 = ORIENTED_EDGE ( 'NONE', *, *, #41, .F. ) ;
#222 = PERSON_AND_ORGANIZATION ( #66, #63 ) ;
#223 = FACE_OUTER_BOUND ( 'NONE', #87, .T. ) ;
ENDSEC;
END-ISO-10303-21;
