ISO-10303-21;
HEADER;
FILE_DESCRIPTION (( 'STEP AP203' ),
    '1' );
FILE_NAME ('55425.step',
    '2021-10-08T05:15:45',
    ( '' ),
    ( '' ),
    'SwSTEP 2.0',
    'SolidWorks 2019',
    '' );
FILE_SCHEMA (( 'CONFIG_CONTROL_DESIGN' ));
ENDSEC;

DATA;
#1 = DIRECTION ( 'NONE',  ( -3.491481338843133355E-15, 1.224646799147353207E-16, -1.000000000000000000 ) ) ;
#2 = DIRECTION ( 'NONE',  ( 3.491481338843133355E-15, -1.224646799147353207E-16, 1.000000000000000000 ) ) ;
#3 = CIRCLE ( 'NONE', #145, 1.000000000000000888 ) ;
#4 = DIRECTION ( 'NONE',  ( -3.491481338843133355E-15, 1.224646799147353207E-16, -1.000000000000000000 ) ) ;
#5 = DIRECTION ( 'NONE',  ( 4.275831445896958607E-31, 1.000000000000000000, 1.224646799147353207E-16 ) ) ;
#6 = ADVANCED_FACE ( 'NONE', ( #36, #109 ), #215, .T. ) ;
#7 = AXIS2_PLACEMENT_3D ( 'NONE', #208, #129, #10 ) ;
#8 = PERSON_AND_ORGANIZATION ( #180, #135 ) ;
#9 = CC_DESIGN_APPROVAL ( #54, ( #156 ) ) ;
#10 = DIRECTION ( 'NONE',  ( 0.0000000000000000000, 1.000000000000000000, 0.0000000000000000000 ) ) ;
#11 = EDGE_LOOP ( 'NONE', ( #152 ) ) ;
#12 = CARTESIAN_POINT ( 'NONE',  ( 4.189777606611760026E-14, 0.8649999999999925526, 12.00000000000000000 ) ) ;
#13 = EDGE_LOOP ( 'NONE', ( #30 ) ) ;
#14 = ADVANCED_FACE ( 'NONE', ( #198, #76 ), #74, .T. ) ;
#15 = EDGE_CURVE ( 'NONE', #22, #22, #155, .T. ) ;
#16 = LOCAL_TIME ( 7, 15, 45.00000000000000000, #106 ) ;
#17 = COORDINATED_UNIVERSAL_TIME_OFFSET ( 1, 0, .AHEAD. ) ;
#18 = CARTESIAN_POINT ( 'NONE',  ( 1.814677997372104448E-15, -6.365033592593183311E-17, 0.5197444354588414139 ) ) ;
#19 = DIRECTION ( 'NONE',  ( 0.0000000000000000000, 1.000000000000000000, 0.0000000000000000000 ) ) ;
#20 = CARTESIAN_POINT ( 'NONE',  ( 1.319779946082704535E-13, -4.629164900776995227E-15, 37.79999999999999716 ) ) ;
#21 = CARTESIAN_POINT ( 'NONE',  ( 1.814677997372104842E-15, 0.8649999999999934408, 0.5197444354588415250 ) ) ;
#22 = VERTEX_POINT ( 'NONE', #12 ) ;
#23 = DIRECTION ( 'NONE',  ( 4.275831445896957731E-31, 1.000000000000000000, 1.224646799147353454E-16 ) ) ;
#24 = EDGE_LOOP ( 'NONE', ( #119 ) ) ;
#25 = LOCAL_TIME ( 7, 15, 45.00000000000000000, #52 ) ;
#26 = ADVANCED_FACE ( 'NONE', ( #181 ), #38, .F. ) ;
#27 = APPLICATION_PROTOCOL_DEFINITION ( 'international standard', 'config_control_design', 1994, #159 ) ;
#28 = MANIFOLD_SOLID_BREP ( 'Corps-Déplacer/Copier1[1]', #141 ) ;
#29 = DIRECTION ( 'NONE',  ( 3.491481338843133355E-15, -1.224646799147353207E-16, 1.000000000000000000 ) ) ;
#30 = ORIENTED_EDGE ( 'NONE', *, *, #97, .F. ) ;
#31 = APPROVAL_DATE_TIME ( #51, #54 ) ;
#32 = AXIS2_PLACEMENT_3D ( 'NONE', #87, #4, #19 ) ;
#33 = PERSON_AND_ORGANIZATION_ROLE ( 'creator' ) ;
#34 = DATE_AND_TIME ( #122, #16 ) ;
#35 =( GEOMETRIC_REPRESENTATION_CONTEXT ( 3 ) GLOBAL_UNCERTAINTY_ASSIGNED_CONTEXT ( ( #45 ) ) GLOBAL_UNIT_ASSIGNED_CONTEXT ( ( #46, #201, #118 ) ) REPRESENTATION_CONTEXT ( 'NONE', 'WORKASPACE' ) );
#36 = FACE_OUTER_BOUND ( 'NONE', #13, .T. ) ;
#37 = DIRECTION ( 'NONE',  ( -3.491481338843133355E-15, 1.224646799147353207E-16, -1.000000000000000000 ) ) ;
#38 = PLANE ( 'NONE',  #184 ) ;
#39 = AXIS2_PLACEMENT_3D ( 'NONE', #157, #84, #142 ) ;
#40 = DATE_AND_TIME ( #134, #25 ) ;
#41 = APPLICATION_CONTEXT ( 'configuration controlled 3d designs of mechanical parts and assemblies' ) ;
#42 = COORDINATED_UNIVERSAL_TIME_OFFSET ( 1, 0, .AHEAD. ) ;
#43 = EDGE_CURVE ( 'NONE', #64, #64, #81, .T. ) ;
#44 = AXIS2_PLACEMENT_3D ( 'NONE', #78, #82, #217 ) ;
#45 = UNCERTAINTY_MEASURE_WITH_UNIT (LENGTH_MEASURE( 1.000000000000000082E-05 ), #46, 'distance_accuracy_value', 'NONE');
#46 =( LENGTH_UNIT ( ) NAMED_UNIT ( * ) SI_UNIT ( .MILLI., .METRE. ) );
#47 = APPROVAL ( #126, 'UNSPECIFIED' ) ;
#48 = MECHANICAL_CONTEXT ( 'NONE', #41, 'mechanical' ) ;
#49 = AXIS2_PLACEMENT_3D ( 'NONE', #192, #117, #187 ) ;
#50 = CARTESIAN_POINT ( 'NONE',  ( 4.189777606611760026E-14, 6.486461060012467921E-33, 12.00000000000000000 ) ) ;
#51 = DATE_AND_TIME ( #206, #137 ) ;
#52 = COORDINATED_UNIVERSAL_TIME_OFFSET ( 1, 0, .AHEAD. ) ;
#53 = AXIS2_PLACEMENT_3D ( 'NONE', #130, #37, #58 ) ;
#54 = APPROVAL ( #221, 'UNSPECIFIED' ) ;
#55 = ORIENTED_EDGE ( 'NONE', *, *, #43, .F. ) ;
#56 = FACE_BOUND ( 'NONE', #190, .T. ) ;
#57 = DIRECTION ( 'NONE',  ( -3.491481338843133355E-15, 1.224646799147353207E-16, -1.000000000000000000 ) ) ;
#58 = DIRECTION ( 'NONE',  ( 0.0000000000000000000, 1.000000000000000000, 0.0000000000000000000 ) ) ;
#59 = PERSON_AND_ORGANIZATION_ROLE ( 'classification_officer' ) ;
#60 = PRODUCT_DEFINITION ( 'UNKNOWN', '', #170, #186 ) ;
#61 = CALENDAR_DATE ( 2021, 8, 10 ) ;
#62 = FACE_OUTER_BOUND ( 'NONE', #108, .T. ) ;
#63 = PERSON_AND_ORGANIZATION ( #180, #135 ) ;
#64 = VERTEX_POINT ( 'NONE', #21 ) ;
#65 = EDGE_CURVE ( 'NONE', #94, #94, #95, .T. ) ;
#66 = EDGE_LOOP ( 'NONE', ( #99 ) ) ;
#67 = PERSON_AND_ORGANIZATION ( #180, #135 ) ;
#68 = FACE_OUTER_BOUND ( 'NONE', #24, .T. ) ;
#69 = LOCAL_TIME ( 7, 15, 45.00000000000000000, #42 ) ;
#70 = ORIENTED_EDGE ( 'NONE', *, *, #97, .T. ) ;
#71 = CC_DESIGN_PERSON_AND_ORGANIZATION_ASSIGNMENT ( #195, #33, ( #170 ) ) ;
#72 = DIRECTION ( 'NONE',  ( 4.453017212456070133E-31, 1.000000000000000000, 1.253412916168222642E-16 ) ) ;
#73 = DATE_AND_TIME ( #223, #200 ) ;
#74 = CYLINDRICAL_SURFACE ( 'NONE', #124, 0.8649999999999937739 ) ;
#75 = AXIS2_PLACEMENT_3D ( 'NONE', #50, #29, #171 ) ;
#76 = FACE_OUTER_BOUND ( 'NONE', #11, .T. ) ;
#77 = APPROVAL_PERSON_ORGANIZATION ( #67, #54, #191 ) ;
#78 = CARTESIAN_POINT ( 'NONE',  ( 0.0000000000000000000, 0.0000000000000000000, 0.0000000000000000000 ) ) ;
#79 = PRODUCT_DEFINITION_SHAPE ( 'NONE', 'NONE',  #60 ) ;
#80 = ADVANCED_FACE ( 'NONE', ( #56, #89 ), #194, .T. ) ;
#81 = CIRCLE ( 'NONE', #112, 0.8649999999999935518 ) ;
#82 = DIRECTION ( 'NONE',  ( 0.0000000000000000000, 0.0000000000000000000, 1.000000000000000000 ) ) ;
#83 = DATE_TIME_ROLE ( 'classification_date' ) ;
#84 = DIRECTION ( 'NONE',  ( 3.491481338843133355E-15, -1.224646799147353207E-16, 1.000000000000000000 ) ) ;
#85 = EDGE_LOOP ( 'NONE', ( #55 ) ) ;
#86 = APPROVAL_DATE_TIME ( #34, #153 ) ;
#87 = CARTESIAN_POINT ( 'NONE',  ( 1.326762908760390423E-13, -4.653657836759941941E-15, 38.00000000000000000 ) ) ;
#88 = PERSON_AND_ORGANIZATION_ROLE ( 'creator' ) ;
#89 = FACE_OUTER_BOUND ( 'NONE', #101, .T. ) ;
#90 = DIRECTION ( 'NONE',  ( -3.491481338843133355E-15, 1.224646799147353207E-16, -1.000000000000000000 ) ) ;
#91 = PERSON_AND_ORGANIZATION ( #180, #135 ) ;
#92 = CIRCLE ( 'NONE', #7, 0.8649999999999939959 ) ;
#93 = CARTESIAN_POINT ( 'NONE',  ( 1.319779946082704535E-13, 0.9999999999999963363, 37.79999999999999716 ) ) ;
#94 = VERTEX_POINT ( 'NONE', #216 ) ;
#95 = CIRCLE ( 'NONE', #32, 0.8000000000000009326 ) ;
#96 = CONICAL_SURFACE ( 'NONE', #39, 0.8649999999999935518, 1.029744258676649649 ) ;
#97 = EDGE_CURVE ( 'NONE', #202, #202, #3, .T. ) ;
#98 = APPROVAL_STATUS ( 'not_yet_approved' ) ;
#99 = ORIENTED_EDGE ( 'NONE', *, *, #65, .F. ) ;
#100 = CARTESIAN_POINT ( 'NONE',  ( 4.271417818091253274E-14, 0.9999999999999954481, 12.23382685902180533 ) ) ;
#101 = EDGE_LOOP ( 'NONE', ( #188 ) ) ;
#102 = CLOSED_SHELL ( 'NONE', ( #144, #14, #182 ) ) ;
#103 = DATE_AND_TIME ( #61, #69 ) ;
#104 = CC_DESIGN_PERSON_AND_ORGANIZATION_ASSIGNMENT ( #143, #88, ( #60 ) ) ;
#105 = MANIFOLD_SOLID_BREP ( 'Corps-Déplacer/Copier1[2]', #102 ) ;
#106 = COORDINATED_UNIVERSAL_TIME_OFFSET ( 1, 0, .AHEAD. ) ;
#107 = AXIS2_PLACEMENT_3D ( 'NONE', #162, #213, #23 ) ;
#108 = EDGE_LOOP ( 'NONE', ( #207 ) ) ;
#109 = FACE_BOUND ( 'NONE', #164, .T. ) ;
#110 = CARTESIAN_POINT ( 'NONE',  ( 1.326762908760390423E-13, -4.653657836759941941E-15, 38.00000000000000000 ) ) ;
#111 = DIRECTION ( 'NONE',  ( -3.491481338843133355E-15, 1.224646799147353207E-16, -1.000000000000000000 ) ) ;
#112 = AXIS2_PLACEMENT_3D ( 'NONE', #18, #185, #72 ) ;
#113 = APPROVAL_PERSON_ORGANIZATION ( #63, #47, #148 ) ;
#114 = SECURITY_CLASSIFICATION_LEVEL ( 'unclassified' ) ;
#115 = CC_DESIGN_PERSON_AND_ORGANIZATION_ASSIGNMENT ( #91, #59, ( #156 ) ) ;
#116 = PRODUCT ( '55425', '55425', '', ( #48 ) ) ;
#117 = DIRECTION ( 'NONE',  ( 3.491481338843133355E-15, -1.224646799147353207E-16, 1.000000000000000000 ) ) ;
#118 =( NAMED_UNIT ( * ) SI_UNIT ( $, .STERADIAN. ) SOLID_ANGLE_UNIT ( ) );
#119 = ORIENTED_EDGE ( 'NONE', *, *, #127, .F. ) ;
#120 = ORIENTED_EDGE ( 'NONE', *, *, #15, .F. ) ;
#121 = FACE_OUTER_BOUND ( 'NONE', #128, .T. ) ;
#122 = CALENDAR_DATE ( 2021, 8, 10 ) ;
#123 = EDGE_CURVE ( 'NONE', #204, #204, #203, .T. ) ;
#124 = AXIS2_PLACEMENT_3D ( 'NONE', #132, #199, #196 ) ;
#125 = CC_DESIGN_APPROVAL ( #153, ( #60 ) ) ;
#126 = APPROVAL_STATUS ( 'not_yet_approved' ) ;
#127 = EDGE_CURVE ( 'NONE', #176, #176, #92, .T. ) ;
#128 = EDGE_LOOP ( 'NONE', ( #147 ) ) ;
#129 = DIRECTION ( 'NONE',  ( -3.491481338843133355E-15, 1.224646799147353207E-16, -1.000000000000000000 ) ) ;
#130 = CARTESIAN_POINT ( 'NONE',  ( 4.189777606611760026E-14, -1.469576158976823947E-15, 12.00000000000000000 ) ) ;
#131 = PERSON_AND_ORGANIZATION_ROLE ( 'design_supplier' ) ;
#132 = CARTESIAN_POINT ( 'NONE',  ( 0.0000000000000000000, 0.0000000000000000000, 0.0000000000000000000 ) ) ;
#133 = CC_DESIGN_DATE_AND_TIME_ASSIGNMENT ( #40, #214, ( #60 ) ) ;
#134 = CALENDAR_DATE ( 2021, 8, 10 ) ;
#135 = ORGANIZATION ( 'UNSPECIFIED', 'UNSPECIFIED', '' ) ;
#136 = PLANE ( 'NONE',  #49 ) ;
#137 = LOCAL_TIME ( 7, 15, 45.00000000000000000, #219 ) ;
#138 = CYLINDRICAL_SURFACE ( 'NONE', #107, 0.9999999999999988898 ) ;
#139 = ADVANCED_BREP_SHAPE_REPRESENTATION ( '55425', ( #28, #105, #44 ), #35 ) ;
#140 = PERSON_AND_ORGANIZATION ( #180, #135 ) ;
#141 = CLOSED_SHELL ( 'NONE', ( #173, #80, #146, #6, #26 ) ) ;
#142 = DIRECTION ( 'NONE',  ( -4.453017212456070133E-31, -1.000000000000000000, -1.253412916168222642E-16 ) ) ;
#143 = PERSON_AND_ORGANIZATION ( #180, #135 ) ;
#144 = ADVANCED_FACE ( 'NONE', ( #121 ), #96, .T. ) ;
#145 = AXIS2_PLACEMENT_3D ( 'NONE', #20, #90, #169 ) ;
#146 = ADVANCED_FACE ( 'NONE', ( #172, #160 ), #138, .T. ) ;
#147 = ORIENTED_EDGE ( 'NONE', *, *, #43, .T. ) ;
#148 = APPROVAL_ROLE ( '' ) ;
#149 = DIRECTION ( 'NONE',  ( 0.0000000000000000000, 1.000000000000000000, 0.0000000000000000000 ) ) ;
#150 = APPROVAL_DATE_TIME ( #73, #47 ) ;
#151 = AXIS2_PLACEMENT_3D ( 'NONE', #168, #2, #210 ) ;
#152 = ORIENTED_EDGE ( 'NONE', *, *, #127, .T. ) ;
#153 = APPROVAL ( #98, 'UNSPECIFIED' ) ;
#154 = CARTESIAN_POINT ( 'NONE',  ( 4.189777606611760026E-14, 0.8649999999999925526, 12.00000000000000000 ) ) ;
#155 = CIRCLE ( 'NONE', #53, 0.8649999999999939959 ) ;
#156 = SECURITY_CLASSIFICATION ( '', '', #114 ) ;
#157 = CARTESIAN_POINT ( 'NONE',  ( 1.814677997372104448E-15, -6.365033592593183311E-17, 0.5197444354588414139 ) ) ;
#158 = APPROVAL_PERSON_ORGANIZATION ( #8, #153, #175 ) ;
#159 = APPLICATION_CONTEXT ( 'configuration controlled 3d designs of mechanical parts and assemblies' ) ;
#160 = FACE_OUTER_BOUND ( 'NONE', #205, .T. ) ;
#161 = CC_DESIGN_PERSON_AND_ORGANIZATION_ASSIGNMENT ( #197, #131, ( #170 ) ) ;
#162 = CARTESIAN_POINT ( 'NONE',  ( 0.0000000000000000000, 0.0000000000000000000, 0.0000000000000000000 ) ) ;
#163 = PRODUCT_RELATED_PRODUCT_CATEGORY ( 'detail', '', ( #116 ) ) ;
#164 = EDGE_LOOP ( 'NONE', ( #166 ) ) ;
#165 = CARTESIAN_POINT ( 'NONE',  ( 4.271417818091253274E-14, -1.498211690422396986E-15, 12.23382685902180533 ) ) ;
#166 = ORIENTED_EDGE ( 'NONE', *, *, #65, .T. ) ;
#167 = AXIS2_PLACEMENT_3D ( 'NONE', #110, #57, #209 ) ;
#168 = CARTESIAN_POINT ( 'NONE',  ( 4.271417818091253274E-14, -1.498211690422396986E-15, 12.23382685902180533 ) ) ;
#169 = DIRECTION ( 'NONE',  ( 0.0000000000000000000, 1.000000000000000000, 0.0000000000000000000 ) ) ;
#170 = PRODUCT_DEFINITION_FORMATION_WITH_SPECIFIED_SOURCE ( 'ANY', '', #116, .NOT_KNOWN. ) ;
#171 = DIRECTION ( 'NONE',  ( -4.275831445896958607E-31, -1.000000000000000000, -1.224646799147353207E-16 ) ) ;
#172 = FACE_OUTER_BOUND ( 'NONE', #193, .T. ) ;
#173 = ADVANCED_FACE ( 'NONE', ( #62 ), #218, .F. ) ;
#174 = APPLICATION_PROTOCOL_DEFINITION ( 'international standard', 'config_control_design', 1994, #41 ) ;
#175 = APPROVAL_ROLE ( '' ) ;
#176 = VERTEX_POINT ( 'NONE', #154 ) ;
#177 = ORIENTED_EDGE ( 'NONE', *, *, #123, .F. ) ;
#178 = CC_DESIGN_SECURITY_CLASSIFICATION ( #156, ( #170 ) ) ;
#179 = SHAPE_DEFINITION_REPRESENTATION ( #79, #139 ) ;
#180 = PERSON ( 'UNSPECIFIED', 'UNSPECIFIED', 'UNSPECIFIED', ('UNSPECIFIED'), ('UNSPECIFIED'), ('UNSPECIFIED') ) ;
#181 = FACE_OUTER_BOUND ( 'NONE', #66, .T. ) ;
#182 = ADVANCED_FACE ( 'NONE', ( #68 ), #136, .T. ) ;
#183 = CARTESIAN_POINT ( 'NONE',  ( 1.326762908760390423E-13, 5.999039130647367482E-33, 38.00000000000000000 ) ) ;
#184 = AXIS2_PLACEMENT_3D ( 'NONE', #183, #111, #5 ) ;
#185 = DIRECTION ( 'NONE',  ( -3.491481338843133355E-15, 1.224646799147353207E-16, -1.000000000000000000 ) ) ;
#186 = DESIGN_CONTEXT ( 'detailed design', #159, 'design' ) ;
#187 = DIRECTION ( 'NONE',  ( -4.275831445896958607E-31, -1.000000000000000000, -1.224646799147353207E-16 ) ) ;
#188 = ORIENTED_EDGE ( 'NONE', *, *, #123, .T. ) ;
#189 = PERSON_AND_ORGANIZATION_ROLE ( 'design_owner' ) ;
#190 = EDGE_LOOP ( 'NONE', ( #120 ) ) ;
#191 = APPROVAL_ROLE ( '' ) ;
#192 = CARTESIAN_POINT ( 'NONE',  ( 4.189777606611760026E-14, 6.486461060012467921E-33, 12.00000000000000000 ) ) ;
#193 = EDGE_LOOP ( 'NONE', ( #177 ) ) ;
#194 = CONICAL_SURFACE ( 'NONE', #151, 0.9999999999999970024, 0.5235987755982970393 ) ;
#195 = PERSON_AND_ORGANIZATION ( #180, #135 ) ;
#196 = DIRECTION ( 'NONE',  ( 4.275831445896958607E-31, 1.000000000000000000, 1.224646799147353207E-16 ) ) ;
#197 = PERSON_AND_ORGANIZATION ( #180, #135 ) ;
#198 = FACE_OUTER_BOUND ( 'NONE', #85, .T. ) ;
#199 = DIRECTION ( 'NONE',  ( -3.491481338843133355E-15, 1.224646799147353207E-16, -1.000000000000000000 ) ) ;
#200 = LOCAL_TIME ( 7, 15, 45.00000000000000000, #17 ) ;
#201 =( NAMED_UNIT ( * ) PLANE_ANGLE_UNIT ( ) SI_UNIT ( $, .RADIAN. ) );
#202 = VERTEX_POINT ( 'NONE', #93 ) ;
#203 = CIRCLE ( 'NONE', #212, 0.9999999999999970024 ) ;
#204 = VERTEX_POINT ( 'NONE', #100 ) ;
#205 = EDGE_LOOP ( 'NONE', ( #70 ) ) ;
#206 = CALENDAR_DATE ( 2021, 8, 10 ) ;
#207 = ORIENTED_EDGE ( 'NONE', *, *, #15, .T. ) ;
#208 = CARTESIAN_POINT ( 'NONE',  ( 4.189777606611760026E-14, -1.469576158976823947E-15, 12.00000000000000000 ) ) ;
#209 = DIRECTION ( 'NONE',  ( 0.0000000000000000000, 1.000000000000000000, 0.0000000000000000000 ) ) ;
#210 = DIRECTION ( 'NONE',  ( 0.0000000000000000000, -1.000000000000000000, 0.0000000000000000000 ) ) ;
#211 = CC_DESIGN_DATE_AND_TIME_ASSIGNMENT ( #103, #83, ( #156 ) ) ;
#212 = AXIS2_PLACEMENT_3D ( 'NONE', #165, #1, #149 ) ;
#213 = DIRECTION ( 'NONE',  ( -3.491481338843133355E-15, 1.224646799147353207E-16, -1.000000000000000000 ) ) ;
#214 = DATE_TIME_ROLE ( 'creation_date' ) ;
#215 = CONICAL_SURFACE ( 'NONE', #167, 0.8000000000000009326, 0.7853981633974512766 ) ;
#216 = CARTESIAN_POINT ( 'NONE',  ( 1.326762908760390423E-13, 0.7999999999999962697, 38.00000000000000000 ) ) ;
#217 = DIRECTION ( 'NONE',  ( 1.000000000000000000, 0.0000000000000000000, 0.0000000000000000000 ) ) ;
#218 = PLANE ( 'NONE',  #75 ) ;
#219 = COORDINATED_UNIVERSAL_TIME_OFFSET ( 1, 0, .AHEAD. ) ;
#220 = CC_DESIGN_APPROVAL ( #47, ( #170 ) ) ;
#221 = APPROVAL_STATUS ( 'not_yet_approved' ) ;
#222 = CC_DESIGN_PERSON_AND_ORGANIZATION_ASSIGNMENT ( #140, #189, ( #116 ) ) ;
#223 = CALENDAR_DATE ( 2021, 8, 10 ) ;
ENDSEC;
END-ISO-10303-21;
