ISO-10303-21;
HEADER;
FILE_DESCRIPTION (( 'STEP AP203' ),
    '1' );
FILE_NAME ('55424.step',
    '2021-10-08T05:15:45',
    ( '' ),
    ( '' ),
    'SwSTEP 2.0',
    'SolidWorks 2019',
    '' );
FILE_SCHEMA (( 'CONFIG_CONTROL_DESIGN' ));
ENDSEC;

DATA;
#1 = SHAPE_DEFINITION_REPRESENTATION ( #175, #40 ) ;
#2 = AXIS2_PLACEMENT_3D ( 'NONE', #5, #24, #8 ) ;
#3 = DATE_TIME_ROLE ( 'creation_date' ) ;
#4 = AXIS2_PLACEMENT_3D ( 'NONE', #43, #28, #173 ) ;
#5 = CARTESIAN_POINT ( 'NONE',  ( 0.0000000000000000000, 0.0000000000000000000, 0.0000000000000000000 ) ) ;
#6 = CONICAL_SURFACE ( 'NONE', #138, 0.9999999999999970024, 0.5235987755982896008 ) ;
#7 = VERTEX_POINT ( 'NONE', #54 ) ;
#8 = DIRECTION ( 'NONE',  ( 1.000000000000000000, 0.0000000000000000000, 0.0000000000000000000 ) ) ;
#9 = FACE_OUTER_BOUND ( 'NONE', #101, .T. ) ;
#10 = ADVANCED_FACE ( 'NONE', ( #20, #146 ), #6, .T. ) ;
#11 = CARTESIAN_POINT ( 'NONE',  ( 4.189777606611760026E-14, -1.469576158976823947E-15, 12.00000000000000000 ) ) ;
#12 = DIRECTION ( 'NONE',  ( -4.275831445896958607E-31, -1.000000000000000000, -1.224646799147353207E-16 ) ) ;
#13 = DIRECTION ( 'NONE',  ( 0.0000000000000000000, 1.000000000000000000, 0.0000000000000000000 ) ) ;
#14 = EDGE_LOOP ( 'NONE', ( #198 ) ) ;
#15 = AXIS2_PLACEMENT_3D ( 'NONE', #221, #220, #139 ) ;
#16 = ORIENTED_EDGE ( 'NONE', *, *, #199, .T. ) ;
#17 = APPLICATION_CONTEXT ( 'configuration controlled 3d designs of mechanical parts and assemblies' ) ;
#18 = ADVANCED_FACE ( 'NONE', ( #71, #35 ), #201, .T. ) ;
#19 = APPROVAL_ROLE ( '' ) ;
#20 = FACE_BOUND ( 'NONE', #178, .T. ) ;
#21 = DIRECTION ( 'NONE',  ( 4.275831445896958607E-31, 1.000000000000000000, 1.224646799147353207E-16 ) ) ;
#22 = CALENDAR_DATE ( 2021, 8, 10 ) ;
#23 = PERSON_AND_ORGANIZATION ( #124, #155 ) ;
#24 = DIRECTION ( 'NONE',  ( 0.0000000000000000000, 0.0000000000000000000, 1.000000000000000000 ) ) ;
#25 = EDGE_CURVE ( 'NONE', #209, #209, #73, .T. ) ;
#26 = CONICAL_SURFACE ( 'NONE', #53, 0.8599999999999935474, 1.029744258676649871 ) ;
#27 = DIRECTION ( 'NONE',  ( 0.0000000000000000000, 1.000000000000000000, 0.0000000000000000000 ) ) ;
#28 = DIRECTION ( 'NONE',  ( -3.491481338843133355E-15, 1.224646799147353207E-16, -1.000000000000000000 ) ) ;
#29 = DIRECTION ( 'NONE',  ( 3.491481338843133355E-15, -1.224646799147353207E-16, 1.000000000000000000 ) ) ;
#30 = ORIENTED_EDGE ( 'NONE', *, *, #154, .T. ) ;
#31 = DIRECTION ( 'NONE',  ( -4.478906847412209867E-31, -1.000000000000000000, -1.260700200564549459E-16 ) ) ;
#32 = ORIENTED_EDGE ( 'NONE', *, *, #161, .F. ) ;
#33 = ADVANCED_FACE ( 'NONE', ( #116 ), #157, .F. ) ;
#34 = AXIS2_PLACEMENT_3D ( 'NONE', #97, #78, #13 ) ;
#35 = FACE_OUTER_BOUND ( 'NONE', #200, .T. ) ;
#36 = APPROVAL_PERSON_ORGANIZATION ( #132, #202, #148 ) ;
#37 =( LENGTH_UNIT ( ) NAMED_UNIT ( * ) SI_UNIT ( .MILLI., .METRE. ) );
#38 = PERSON_AND_ORGANIZATION ( #124, #155 ) ;
#39 = CALENDAR_DATE ( 2021, 8, 10 ) ;
#40 = ADVANCED_BREP_SHAPE_REPRESENTATION ( '55424', ( #186, #102, #2 ), #151 ) ;
#41 = CIRCLE ( 'NONE', #74, 0.8599999999999959899 ) ;
#42 = CARTESIAN_POINT ( 'NONE',  ( 1.326762908760390423E-13, -4.653657836759941941E-15, 38.00000000000000000 ) ) ;
#43 = CARTESIAN_POINT ( 'NONE',  ( 4.189777606611760026E-14, -1.469576158976823947E-15, 12.00000000000000000 ) ) ;
#44 = CC_DESIGN_APPROVAL ( #164, ( #143 ) ) ;
#45 = PLANE ( 'NONE',  #15 ) ;
#46 = EDGE_LOOP ( 'NONE', ( #123 ) ) ;
#47 = PRODUCT_DEFINITION ( 'UNKNOWN', '', #143, #113 ) ;
#48 = COORDINATED_UNIVERSAL_TIME_OFFSET ( 1, 0, .AHEAD. ) ;
#49 = PERSON_AND_ORGANIZATION ( #124, #155 ) ;
#50 = LOCAL_TIME ( 7, 15, 45.00000000000000000, #191 ) ;
#51 = PRODUCT_RELATED_PRODUCT_CATEGORY ( 'detail', '', ( #140 ) ) ;
#52 = DIRECTION ( 'NONE',  ( 3.491481338843133355E-15, -1.224646799147353207E-16, 1.000000000000000000 ) ) ;
#53 = AXIS2_PLACEMENT_3D ( 'NONE', #193, #60, #31 ) ;
#54 = CARTESIAN_POINT ( 'NONE',  ( 4.189777606611760026E-14, 0.8599999999999944356, 12.00000000000000000 ) ) ;
#55 = CC_DESIGN_PERSON_AND_ORGANIZATION_ASSIGNMENT ( #59, #129, ( #140 ) ) ;
#56 = CARTESIAN_POINT ( 'NONE',  ( 1.804188529179202165E-15, 0.8599999999999934364, 0.5167401323637036414 ) ) ;
#57 = APPLICATION_CONTEXT ( 'configuration controlled 3d designs of mechanical parts and assemblies' ) ;
#58 = PERSON_AND_ORGANIZATION_ROLE ( 'classification_officer' ) ;
#59 = PERSON_AND_ORGANIZATION ( #124, #155 ) ;
#60 = DIRECTION ( 'NONE',  ( 3.491481338843133355E-15, -1.224646799147353207E-16, 1.000000000000000000 ) ) ;
#61 = DIRECTION ( 'NONE',  ( 0.0000000000000000000, 1.000000000000000000, 0.0000000000000000000 ) ) ;
#62 = AXIS2_PLACEMENT_3D ( 'NONE', #210, #64, #98 ) ;
#63 = ORIENTED_EDGE ( 'NONE', *, *, #161, .T. ) ;
#64 = DIRECTION ( 'NONE',  ( 3.491481338843133355E-15, -1.224646799147353207E-16, 1.000000000000000000 ) ) ;
#65 = ORIENTED_EDGE ( 'NONE', *, *, #96, .F. ) ;
#66 = FACE_OUTER_BOUND ( 'NONE', #117, .T. ) ;
#67 = ADVANCED_FACE ( 'NONE', ( #134 ), #45, .F. ) ;
#68 = ORIENTED_EDGE ( 'NONE', *, *, #199, .F. ) ;
#69 = APPROVAL_PERSON_ORGANIZATION ( #49, #190, #19 ) ;
#70 = ORIENTED_EDGE ( 'NONE', *, *, #25, .F. ) ;
#71 = FACE_OUTER_BOUND ( 'NONE', #222, .T. ) ;
#72 = ADVANCED_FACE ( 'NONE', ( #133 ), #77, .T. ) ;
#73 = CIRCLE ( 'NONE', #180, 0.9999999999999970024 ) ;
#74 = AXIS2_PLACEMENT_3D ( 'NONE', #11, #196, #136 ) ;
#75 = CALENDAR_DATE ( 2021, 8, 10 ) ;
#76 = PERSON_AND_ORGANIZATION_ROLE ( 'creator' ) ;
#77 = PLANE ( 'NONE',  #62 ) ;
#78 = DIRECTION ( 'NONE',  ( -3.491481338843133355E-15, 1.224646799147353207E-16, -1.000000000000000000 ) ) ;
#79 = CARTESIAN_POINT ( 'NONE',  ( 1.319779946082704535E-13, -4.629164900776995227E-15, 37.79999999999999716 ) ) ;
#80 = FACE_OUTER_BOUND ( 'NONE', #14, .T. ) ;
#81 = CC_DESIGN_PERSON_AND_ORGANIZATION_ASSIGNMENT ( #216, #58, ( #206 ) ) ;
#82 = AXIS2_PLACEMENT_3D ( 'NONE', #79, #218, #61 ) ;
#83 = EDGE_LOOP ( 'NONE', ( #63 ) ) ;
#84 = CC_DESIGN_APPROVAL ( #190, ( #206 ) ) ;
#85 = DIRECTION ( 'NONE',  ( 0.0000000000000000000, -1.000000000000000000, 0.0000000000000000000 ) ) ;
#86 = APPROVAL_DATE_TIME ( #103, #190 ) ;
#87 = ADVANCED_FACE ( 'NONE', ( #115, #66 ), #114, .T. ) ;
#88 = CALENDAR_DATE ( 2021, 8, 10 ) ;
#89 = APPROVAL_STATUS ( 'not_yet_approved' ) ;
#90 = CIRCLE ( 'NONE', #82, 1.000000000000000888 ) ;
#91 = APPROVAL_DATE_TIME ( #189, #164 ) ;
#92 = PERSON_AND_ORGANIZATION_ROLE ( 'design_supplier' ) ;
#93 = MECHANICAL_CONTEXT ( 'NONE', #57, 'mechanical' ) ;
#94 = DIRECTION ( 'NONE',  ( 4.275831445896957731E-31, 1.000000000000000000, 1.224646799147353454E-16 ) ) ;
#95 = CARTESIAN_POINT ( 'NONE',  ( 1.804188529179201770E-15, -6.328241490901892037E-17, 0.5167401323637035304 ) ) ;
#96 = EDGE_CURVE ( 'NONE', #176, #176, #160, .T. ) ;
#97 = CARTESIAN_POINT ( 'NONE',  ( 1.326762908760390423E-13, -4.653657836759941941E-15, 38.00000000000000000 ) ) ;
#98 = DIRECTION ( 'NONE',  ( -4.275831445896958607E-31, -1.000000000000000000, -1.224646799147353207E-16 ) ) ;
#99 = LOCAL_TIME ( 7, 15, 45.00000000000000000, #48 ) ;
#100 = EDGE_LOOP ( 'NONE', ( #70 ) ) ;
#101 = EDGE_LOOP ( 'NONE', ( #30 ) ) ;
#102 = MANIFOLD_SOLID_BREP ( 'Corps-Déplacer/Copier1[2]', #122 ) ;
#103 = DATE_AND_TIME ( #182, #99 ) ;
#104 = CC_DESIGN_PERSON_AND_ORGANIZATION_ASSIGNMENT ( #185, #76, ( #47 ) ) ;
#105 = ORIENTED_EDGE ( 'NONE', *, *, #112, .T. ) ;
#106 = CC_DESIGN_APPROVAL ( #202, ( #47 ) ) ;
#107 = APPLICATION_PROTOCOL_DEFINITION ( 'international standard', 'config_control_design', 1994, #17 ) ;
#108 = COORDINATED_UNIVERSAL_TIME_OFFSET ( 1, 0, .AHEAD. ) ;
#109 = VERTEX_POINT ( 'NONE', #56 ) ;
#110 = APPROVAL_STATUS ( 'not_yet_approved' ) ;
#111 = AXIS2_PLACEMENT_3D ( 'NONE', #120, #183, #21 ) ;
#112 = EDGE_CURVE ( 'NONE', #127, #127, #90, .T. ) ;
#113 = DESIGN_CONTEXT ( 'detailed design', #17, 'design' ) ;
#114 = CYLINDRICAL_SURFACE ( 'NONE', #125, 0.9999999999999988898 ) ;
#115 = FACE_OUTER_BOUND ( 'NONE', #100, .T. ) ;
#116 = FACE_OUTER_BOUND ( 'NONE', #83, .T. ) ;
#117 = EDGE_LOOP ( 'NONE', ( #105 ) ) ;
#118 = CARTESIAN_POINT ( 'NONE',  ( 4.274441529627531410E-14, 0.9999999999999954481, 12.24248711305964932 ) ) ;
#119 = CC_DESIGN_PERSON_AND_ORGANIZATION_ASSIGNMENT ( #38, #92, ( #143 ) ) ;
#120 = CARTESIAN_POINT ( 'NONE',  ( 0.0000000000000000000, 0.0000000000000000000, 0.0000000000000000000 ) ) ;
#121 = DATE_AND_TIME ( #39, #188 ) ;
#122 = CLOSED_SHELL ( 'NONE', ( #141, #18, #72 ) ) ;
#123 = ORIENTED_EDGE ( 'NONE', *, *, #96, .T. ) ;
#124 = PERSON ( 'UNSPECIFIED', 'UNSPECIFIED', 'UNSPECIFIED', ('UNSPECIFIED'), ('UNSPECIFIED'), ('UNSPECIFIED') ) ;
#125 = AXIS2_PLACEMENT_3D ( 'NONE', #208, #217, #94 ) ;
#126 = DIRECTION ( 'NONE',  ( -3.491481338843133355E-15, 1.224646799147353207E-16, -1.000000000000000000 ) ) ;
#127 = VERTEX_POINT ( 'NONE', #187 ) ;
#128 = APPLICATION_PROTOCOL_DEFINITION ( 'international standard', 'config_control_design', 1994, #57 ) ;
#129 = PERSON_AND_ORGANIZATION_ROLE ( 'design_owner' ) ;
#130 = COORDINATED_UNIVERSAL_TIME_OFFSET ( 1, 0, .AHEAD. ) ;
#131 = APPROVAL_PERSON_ORGANIZATION ( #23, #164, #184 ) ;
#132 = PERSON_AND_ORGANIZATION ( #124, #155 ) ;
#133 = FACE_OUTER_BOUND ( 'NONE', #195, .T. ) ;
#134 = FACE_OUTER_BOUND ( 'NONE', #212, .T. ) ;
#135 = CONICAL_SURFACE ( 'NONE', #34, 0.8000000000000009326, 0.7853981633974512766 ) ;
#136 = DIRECTION ( 'NONE',  ( 0.0000000000000000000, 1.000000000000000000, 0.0000000000000000000 ) ) ;
#137 = CC_DESIGN_DATE_AND_TIME_ASSIGNMENT ( #121, #145, ( #206 ) ) ;
#138 = AXIS2_PLACEMENT_3D ( 'NONE', #144, #52, #85 ) ;
#139 = DIRECTION ( 'NONE',  ( 4.275831445896958607E-31, 1.000000000000000000, 1.224646799147353207E-16 ) ) ;
#140 = PRODUCT ( '55424', '55424', '', ( #93 ) ) ;
#141 = ADVANCED_FACE ( 'NONE', ( #9 ), #26, .T. ) ;
#142 = DIRECTION ( 'NONE',  ( 0.0000000000000000000, 1.000000000000000000, 0.0000000000000000000 ) ) ;
#143 = PRODUCT_DEFINITION_FORMATION_WITH_SPECIFIED_SOURCE ( 'ANY', '', #140, .NOT_KNOWN. ) ;
#144 = CARTESIAN_POINT ( 'NONE',  ( 4.274441529627531410E-14, -1.499272265661122227E-15, 12.24248711305964932 ) ) ;
#145 = DATE_TIME_ROLE ( 'classification_date' ) ;
#146 = FACE_OUTER_BOUND ( 'NONE', #197, .T. ) ;
#147 = CARTESIAN_POINT ( 'NONE',  ( 4.274441529627531410E-14, -1.499272265661122227E-15, 12.24248711305964932 ) ) ;
#148 = APPROVAL_ROLE ( '' ) ;
#149 = CIRCLE ( 'NONE', #219, 0.8599999999999935474 ) ;
#150 = PERSON_AND_ORGANIZATION ( #124, #155 ) ;
#151 =( GEOMETRIC_REPRESENTATION_CONTEXT ( 3 ) GLOBAL_UNCERTAINTY_ASSIGNED_CONTEXT ( ( #172 ) ) GLOBAL_UNIT_ASSIGNED_CONTEXT ( ( #37, #214, #153 ) ) REPRESENTATION_CONTEXT ( 'NONE', 'WORKASPACE' ) );
#152 = SECURITY_CLASSIFICATION_LEVEL ( 'unclassified' ) ;
#153 =( NAMED_UNIT ( * ) SI_UNIT ( $, .STERADIAN. ) SOLID_ANGLE_UNIT ( ) );
#154 = EDGE_CURVE ( 'NONE', #109, #109, #149, .T. ) ;
#155 = ORGANIZATION ( 'UNSPECIFIED', 'UNSPECIFIED', '' ) ;
#156 = FACE_BOUND ( 'NONE', #46, .T. ) ;
#157 = PLANE ( 'NONE',  #167 ) ;
#158 = ORIENTED_EDGE ( 'NONE', *, *, #154, .F. ) ;
#159 = DIRECTION ( 'NONE',  ( -3.491481338843133355E-15, 1.224646799147353207E-16, -1.000000000000000000 ) ) ;
#160 = CIRCLE ( 'NONE', #181, 0.8000000000000009326 ) ;
#161 = EDGE_CURVE ( 'NONE', #169, #169, #192, .T. ) ;
#162 = ORIENTED_EDGE ( 'NONE', *, *, #25, .T. ) ;
#163 = APPROVAL_STATUS ( 'not_yet_approved' ) ;
#164 = APPROVAL ( #89, 'UNSPECIFIED' ) ;
#165 = APPROVAL_DATE_TIME ( #215, #202 ) ;
#166 = COORDINATED_UNIVERSAL_TIME_OFFSET ( 1, 0, .AHEAD. ) ;
#167 = AXIS2_PLACEMENT_3D ( 'NONE', #207, #29, #12 ) ;
#168 = PERSON_AND_ORGANIZATION_ROLE ( 'creator' ) ;
#169 = VERTEX_POINT ( 'NONE', #204 ) ;
#170 = DIRECTION ( 'NONE',  ( -3.491481338843133355E-15, 1.224646799147353207E-16, -1.000000000000000000 ) ) ;
#171 = LOCAL_TIME ( 7, 15, 45.00000000000000000, #108 ) ;
#172 = UNCERTAINTY_MEASURE_WITH_UNIT (LENGTH_MEASURE( 1.000000000000000082E-05 ), #37, 'distance_accuracy_value', 'NONE');
#173 = DIRECTION ( 'NONE',  ( 0.0000000000000000000, 1.000000000000000000, 0.0000000000000000000 ) ) ;
#174 = CARTESIAN_POINT ( 'NONE',  ( 1.326762908760390423E-13, 0.7999999999999962697, 38.00000000000000000 ) ) ;
#175 = PRODUCT_DEFINITION_SHAPE ( 'NONE', 'NONE',  #47 ) ;
#176 = VERTEX_POINT ( 'NONE', #174 ) ;
#177 = CLOSED_SHELL ( 'NONE', ( #33, #10, #87, #213, #67 ) ) ;
#178 = EDGE_LOOP ( 'NONE', ( #32 ) ) ;
#179 = CC_DESIGN_DATE_AND_TIME_ASSIGNMENT ( #205, #3, ( #47 ) ) ;
#180 = AXIS2_PLACEMENT_3D ( 'NONE', #147, #126, #142 ) ;
#181 = AXIS2_PLACEMENT_3D ( 'NONE', #42, #170, #27 ) ;
#182 = CALENDAR_DATE ( 2021, 8, 10 ) ;
#183 = DIRECTION ( 'NONE',  ( -3.491481338843133355E-15, 1.224646799147353207E-16, -1.000000000000000000 ) ) ;
#184 = APPROVAL_ROLE ( '' ) ;
#185 = PERSON_AND_ORGANIZATION ( #124, #155 ) ;
#186 = MANIFOLD_SOLID_BREP ( 'Corps-Déplacer/Copier1[1]', #177 ) ;
#187 = CARTESIAN_POINT ( 'NONE',  ( 1.319779946082704535E-13, 0.9999999999999963363, 37.79999999999999716 ) ) ;
#188 = LOCAL_TIME ( 7, 15, 45.00000000000000000, #130 ) ;
#189 = DATE_AND_TIME ( #75, #223 ) ;
#190 = APPROVAL ( #163, 'UNSPECIFIED' ) ;
#191 = COORDINATED_UNIVERSAL_TIME_OFFSET ( 1, 0, .AHEAD. ) ;
#192 = CIRCLE ( 'NONE', #4, 0.8599999999999959899 ) ;
#193 = CARTESIAN_POINT ( 'NONE',  ( 1.804188529179201770E-15, -6.328241490901892037E-17, 0.5167401323637035304 ) ) ;
#194 = DIRECTION ( 'NONE',  ( 4.478906847412209867E-31, 1.000000000000000000, 1.260700200564549459E-16 ) ) ;
#195 = EDGE_LOOP ( 'NONE', ( #68 ) ) ;
#196 = DIRECTION ( 'NONE',  ( -3.491481338843133355E-15, 1.224646799147353207E-16, -1.000000000000000000 ) ) ;
#197 = EDGE_LOOP ( 'NONE', ( #162 ) ) ;
#198 = ORIENTED_EDGE ( 'NONE', *, *, #112, .F. ) ;
#199 = EDGE_CURVE ( 'NONE', #7, #7, #41, .T. ) ;
#200 = EDGE_LOOP ( 'NONE', ( #16 ) ) ;
#201 = CYLINDRICAL_SURFACE ( 'NONE', #111, 0.8599999999999947686 ) ;
#202 = APPROVAL ( #110, 'UNSPECIFIED' ) ;
#203 = CC_DESIGN_SECURITY_CLASSIFICATION ( #206, ( #143 ) ) ;
#204 = CARTESIAN_POINT ( 'NONE',  ( 4.189777606611760026E-14, 0.8599999999999944356, 12.00000000000000000 ) ) ;
#205 = DATE_AND_TIME ( #22, #171 ) ;
#206 = SECURITY_CLASSIFICATION ( '', '', #152 ) ;
#207 = CARTESIAN_POINT ( 'NONE',  ( 4.189777606611760026E-14, 6.448967065445934891E-33, 12.00000000000000000 ) ) ;
#208 = CARTESIAN_POINT ( 'NONE',  ( 0.0000000000000000000, 0.0000000000000000000, 0.0000000000000000000 ) ) ;
#209 = VERTEX_POINT ( 'NONE', #118 ) ;
#210 = CARTESIAN_POINT ( 'NONE',  ( 4.189777606611760026E-14, 6.448967065445934891E-33, 12.00000000000000000 ) ) ;
#211 = CC_DESIGN_PERSON_AND_ORGANIZATION_ASSIGNMENT ( #150, #168, ( #143 ) ) ;
#212 = EDGE_LOOP ( 'NONE', ( #65 ) ) ;
#213 = ADVANCED_FACE ( 'NONE', ( #80, #156 ), #135, .T. ) ;
#214 =( NAMED_UNIT ( * ) PLANE_ANGLE_UNIT ( ) SI_UNIT ( $, .RADIAN. ) );
#215 = DATE_AND_TIME ( #88, #50 ) ;
#216 = PERSON_AND_ORGANIZATION ( #124, #155 ) ;
#217 = DIRECTION ( 'NONE',  ( -3.491481338843133355E-15, 1.224646799147353207E-16, -1.000000000000000000 ) ) ;
#218 = DIRECTION ( 'NONE',  ( -3.491481338843133355E-15, 1.224646799147353207E-16, -1.000000000000000000 ) ) ;
#219 = AXIS2_PLACEMENT_3D ( 'NONE', #95, #159, #194 ) ;
#220 = DIRECTION ( 'NONE',  ( -3.491481338843133355E-15, 1.224646799147353207E-16, -1.000000000000000000 ) ) ;
#221 = CARTESIAN_POINT ( 'NONE',  ( 1.326762908760390423E-13, 5.999039130647367482E-33, 38.00000000000000000 ) ) ;
#222 = EDGE_LOOP ( 'NONE', ( #158 ) ) ;
#223 = LOCAL_TIME ( 7, 15, 45.00000000000000000, #166 ) ;
ENDSEC;
END-ISO-10303-21;
