ISO-10303-21;
HEADER;
FILE_DESCRIPTION (( 'STEP AP203' ),
    '1' );
FILE_NAME ('55423.step',
    '2021-10-08T05:15:44',
    ( '' ),
    ( '' ),
    'SwSTEP 2.0',
    'SolidWorks 2019',
    '' );
FILE_SCHEMA (( 'CONFIG_CONTROL_DESIGN' ));
ENDSEC;

DATA;
#1 = CC_DESIGN_PERSON_AND_ORGANIZATION_ASSIGNMENT ( #73, #88, ( #64 ) ) ;
#2 = PERSON_AND_ORGANIZATION ( #174, #206 ) ;
#3 = AXIS2_PLACEMENT_3D ( 'NONE', #108, #41, #107 ) ;
#4 = DATE_AND_TIME ( #194, #140 ) ;
#5 = COORDINATED_UNIVERSAL_TIME_OFFSET ( 1, 0, .AHEAD. ) ;
#6 = DIRECTION ( 'NONE',  ( 0.0000000000000000000, 1.000000000000000000, 0.0000000000000000000 ) ) ;
#7 = CYLINDRICAL_SURFACE ( 'NONE', #219, 0.8549999999999939870 ) ;
#8 = LOCAL_TIME ( 7, 15, 44.00000000000000000, #5 ) ;
#9 = DIRECTION ( 'NONE',  ( -4.275831445896958607E-31, -1.000000000000000000, -1.224646799147353207E-16 ) ) ;
#10 = PLANE ( 'NONE',  #139 ) ;
#11 = EDGE_LOOP ( 'NONE', ( #60 ) ) ;
#12 = CARTESIAN_POINT ( 'NONE',  ( 0.0000000000000000000, 0.0000000000000000000, 0.0000000000000000000 ) ) ;
#13 = VERTEX_POINT ( 'NONE', #173 ) ;
#14 = CLOSED_SHELL ( 'NONE', ( #37, #212, #171, #63, #52 ) ) ;
#15 = CC_DESIGN_APPROVAL ( #197, ( #64 ) ) ;
#16 = ADVANCED_FACE ( 'NONE', ( #199 ), #10, .T. ) ;
#17 = MANIFOLD_SOLID_BREP ( 'Corps-Déplacer/Copier1[1]', #14 ) ;
#18 = APPROVAL_ROLE ( '' ) ;
#19 = CIRCLE ( 'NONE', #157, 0.9999999999999970024 ) ;
#20 = PRODUCT_DEFINITION ( 'UNKNOWN', '', #64, #148 ) ;
#21 = MANIFOLD_SOLID_BREP ( 'Corps-Déplacer/Copier1[2]', #109 ) ;
#22 = APPROVAL_STATUS ( 'not_yet_approved' ) ;
#23 = APPROVAL_DATE_TIME ( #54, #190 ) ;
#24 = PERSON_AND_ORGANIZATION_ROLE ( 'creator' ) ;
#25 = CARTESIAN_POINT ( 'NONE',  ( 4.189777606611760026E-14, 6.411473070879377230E-33, 12.00000000000000000 ) ) ;
#26 = CARTESIAN_POINT ( 'NONE',  ( 1.326762908760390423E-13, -4.653657836759941941E-15, 38.00000000000000000 ) ) ;
#27 = EDGE_LOOP ( 'NONE', ( #42 ) ) ;
#28 = AXIS2_PLACEMENT_3D ( 'NONE', #26, #47, #149 ) ;
#29 = CARTESIAN_POINT ( 'NONE',  ( 1.793699060986299093E-15, -6.291449389210600763E-17, 0.5137358292685656469 ) ) ;
#30 = DIRECTION ( 'NONE',  ( 0.0000000000000000000, 1.000000000000000000, 0.0000000000000000000 ) ) ;
#31 = CARTESIAN_POINT ( 'NONE',  ( 4.277465241163808914E-14, -1.500332840899847272E-15, 12.25114736709749508 ) ) ;
#32 = AXIS2_PLACEMENT_3D ( 'NONE', #217, #91, #89 ) ;
#33 = PERSON_AND_ORGANIZATION_ROLE ( 'design_owner' ) ;
#34 = FACE_OUTER_BOUND ( 'NONE', #62, .T. ) ;
#35 = ADVANCED_FACE ( 'NONE', ( #216, #164 ), #7, .T. ) ;
#36 =( NAMED_UNIT ( * ) PLANE_ANGLE_UNIT ( ) SI_UNIT ( $, .RADIAN. ) );
#37 = ADVANCED_FACE ( 'NONE', ( #218 ), #195, .F. ) ;
#38 = SECURITY_CLASSIFICATION_LEVEL ( 'unclassified' ) ;
#39 = APPROVAL_ROLE ( '' ) ;
#40 = DATE_TIME_ROLE ( 'classification_date' ) ;
#41 = DIRECTION ( 'NONE',  ( 3.491481338843133355E-15, -1.224646799147353207E-16, 1.000000000000000000 ) ) ;
#42 = ORIENTED_EDGE ( 'NONE', *, *, #95, .F. ) ;
#43 = FACE_OUTER_BOUND ( 'NONE', #201, .T. ) ;
#44 = CARTESIAN_POINT ( 'NONE',  ( 1.326762908760390423E-13, -4.653657836759941941E-15, 38.00000000000000000 ) ) ;
#45 = APPROVAL_PERSON_ORGANIZATION ( #208, #190, #104 ) ;
#46 = EDGE_LOOP ( 'NONE', ( #76 ) ) ;
#47 = DIRECTION ( 'NONE',  ( -3.491481338843133355E-15, 1.224646799147353207E-16, -1.000000000000000000 ) ) ;
#48 = VERTEX_POINT ( 'NONE', #71 ) ;
#49 =( GEOMETRIC_REPRESENTATION_CONTEXT ( 3 ) GLOBAL_UNCERTAINTY_ASSIGNED_CONTEXT ( ( #180 ) ) GLOBAL_UNIT_ASSIGNED_CONTEXT ( ( #65, #36, #167 ) ) REPRESENTATION_CONTEXT ( 'NONE', 'WORKASPACE' ) );
#50 = DIRECTION ( 'NONE',  ( 0.0000000000000000000, 0.0000000000000000000, 1.000000000000000000 ) ) ;
#51 = CONICAL_SURFACE ( 'NONE', #70, 0.9999999999999970024, 0.5235987755982961511 ) ;
#52 = ADVANCED_FACE ( 'NONE', ( #106 ), #177, .F. ) ;
#53 = EDGE_CURVE ( 'NONE', #97, #97, #100, .T. ) ;
#54 = DATE_AND_TIME ( #210, #189 ) ;
#55 = PERSON_AND_ORGANIZATION ( #174, #206 ) ;
#56 = ORIENTED_EDGE ( 'NONE', *, *, #213, .T. ) ;
#57 = AXIS2_PLACEMENT_3D ( 'NONE', #182, #143, #214 ) ;
#58 = FACE_OUTER_BOUND ( 'NONE', #11, .T. ) ;
#59 = EDGE_CURVE ( 'NONE', #203, #203, #166, .T. ) ;
#60 = ORIENTED_EDGE ( 'NONE', *, *, #53, .F. ) ;
#61 = FACE_BOUND ( 'NONE', #144, .T. ) ;
#62 = EDGE_LOOP ( 'NONE', ( #92 ) ) ;
#63 = ADVANCED_FACE ( 'NONE', ( #58, #61 ), #209, .T. ) ;
#64 = PRODUCT_DEFINITION_FORMATION_WITH_SPECIFIED_SOURCE ( 'ANY', '', #165, .NOT_KNOWN. ) ;
#65 =( LENGTH_UNIT ( ) NAMED_UNIT ( * ) SI_UNIT ( .MILLI., .METRE. ) );
#66 = APPLICATION_PROTOCOL_DEFINITION ( 'international standard', 'config_control_design', 1994, #105 ) ;
#67 = VERTEX_POINT ( 'NONE', #132 ) ;
#68 = APPROVAL_PERSON_ORGANIZATION ( #169, #82, #18 ) ;
#69 = CARTESIAN_POINT ( 'NONE',  ( 4.189777606611760657E-14, 0.8549999999999928768, 12.00000000000000178 ) ) ;
#70 = AXIS2_PLACEMENT_3D ( 'NONE', #31, #113, #87 ) ;
#71 = CARTESIAN_POINT ( 'NONE',  ( 1.326762908760390423E-13, 0.7999999999999962697, 38.00000000000000000 ) ) ;
#72 = PERSON_AND_ORGANIZATION_ROLE ( 'creator' ) ;
#73 = PERSON_AND_ORGANIZATION ( #174, #206 ) ;
#74 = CC_DESIGN_APPROVAL ( #82, ( #20 ) ) ;
#75 = EDGE_LOOP ( 'NONE', ( #192 ) ) ;
#76 = ORIENTED_EDGE ( 'NONE', *, *, #59, .F. ) ;
#77 = ADVANCED_BREP_SHAPE_REPRESENTATION ( '55423', ( #17, #21, #196 ), #49 ) ;
#78 = DIRECTION ( 'NONE',  ( 3.491481338843133355E-15, -1.224646799147353207E-16, 1.000000000000000000 ) ) ;
#79 = EDGE_LOOP ( 'NONE', ( #131 ) ) ;
#80 = FACE_OUTER_BOUND ( 'NONE', #161, .T. ) ;
#81 = DIRECTION ( 'NONE',  ( 4.275831445896957731E-31, 1.000000000000000000, 1.224646799147353454E-16 ) ) ;
#82 = APPROVAL ( #188, 'UNSPECIFIED' ) ;
#83 = DIRECTION ( 'NONE',  ( -3.491481338843133355E-15, 1.224646799147353207E-16, -1.000000000000000000 ) ) ;
#84 = AXIS2_PLACEMENT_3D ( 'NONE', #29, #146, #178 ) ;
#85 = CONICAL_SURFACE ( 'NONE', #84, 0.8549999999999935429, 1.029744258676649871 ) ;
#86 = COORDINATED_UNIVERSAL_TIME_OFFSET ( 1, 0, .AHEAD. ) ;
#87 = DIRECTION ( 'NONE',  ( 0.0000000000000000000, -1.000000000000000000, 0.0000000000000000000 ) ) ;
#88 = PERSON_AND_ORGANIZATION_ROLE ( 'design_supplier' ) ;
#89 = DIRECTION ( 'NONE',  ( 4.275831445896958607E-31, 1.000000000000000000, 1.224646799147353207E-16 ) ) ;
#90 = CARTESIAN_POINT ( 'NONE',  ( 4.189777606611760657E-14, -1.469576158976824144E-15, 12.00000000000000178 ) ) ;
#91 = DIRECTION ( 'NONE',  ( -3.491481338843133355E-15, 1.224646799147353207E-16, -1.000000000000000000 ) ) ;
#92 = ORIENTED_EDGE ( 'NONE', *, *, #53, .T. ) ;
#93 = ORIENTED_EDGE ( 'NONE', *, *, #59, .T. ) ;
#94 = SECURITY_CLASSIFICATION ( '', '', #38 ) ;
#95 = EDGE_CURVE ( 'NONE', #67, #67, #130, .T. ) ;
#96 = FACE_OUTER_BOUND ( 'NONE', #176, .T. ) ;
#97 = VERTEX_POINT ( 'NONE', #98 ) ;
#98 = CARTESIAN_POINT ( 'NONE',  ( 1.319779946082704535E-13, 0.9999999999999963363, 37.79999999999999716 ) ) ;
#99 = ADVANCED_FACE ( 'NONE', ( #43 ), #85, .T. ) ;
#100 = CIRCLE ( 'NONE', #121, 1.000000000000000888 ) ;
#101 = DIRECTION ( 'NONE',  ( -3.491481338843133355E-15, 1.224646799147353207E-16, -1.000000000000000000 ) ) ;
#102 = PERSON_AND_ORGANIZATION_ROLE ( 'classification_officer' ) ;
#103 = COORDINATED_UNIVERSAL_TIME_OFFSET ( 1, 0, .AHEAD. ) ;
#104 = APPROVAL_ROLE ( '' ) ;
#105 = APPLICATION_CONTEXT ( 'configuration controlled 3d designs of mechanical parts and assemblies' ) ;
#106 = FACE_OUTER_BOUND ( 'NONE', #111, .T. ) ;
#107 = DIRECTION ( 'NONE',  ( -4.275831445896958607E-31, -1.000000000000000000, -1.224646799147353207E-16 ) ) ;
#108 = CARTESIAN_POINT ( 'NONE',  ( 4.189777606611760026E-14, 6.411473070879377230E-33, 12.00000000000000000 ) ) ;
#109 = CLOSED_SHELL ( 'NONE', ( #99, #35, #16 ) ) ;
#110 = AXIS2_PLACEMENT_3D ( 'NONE', #44, #181, #30 ) ;
#111 = EDGE_LOOP ( 'NONE', ( #162 ) ) ;
#112 = DIRECTION ( 'NONE',  ( 0.0000000000000000000, 1.000000000000000000, 0.0000000000000000000 ) ) ;
#113 = DIRECTION ( 'NONE',  ( 3.491481338843133355E-15, -1.224646799147353207E-16, 1.000000000000000000 ) ) ;
#114 = CARTESIAN_POINT ( 'NONE',  ( 4.277465241163808914E-14, -1.500332840899847272E-15, 12.25114736709749508 ) ) ;
#115 = CARTESIAN_POINT ( 'NONE',  ( 0.0000000000000000000, 0.0000000000000000000, 0.0000000000000000000 ) ) ;
#116 = AXIS2_PLACEMENT_3D ( 'NONE', #170, #83, #112 ) ;
#117 = LOCAL_TIME ( 7, 15, 44.00000000000000000, #123 ) ;
#118 = APPLICATION_CONTEXT ( 'configuration controlled 3d designs of mechanical parts and assemblies' ) ;
#119 = CC_DESIGN_PERSON_AND_ORGANIZATION_ASSIGNMENT ( #133, #33, ( #165 ) ) ;
#120 = CARTESIAN_POINT ( 'NONE',  ( 1.793699060986299487E-15, 0.8549999999999934319, 0.5137358292685657579 ) ) ;
#121 = AXIS2_PLACEMENT_3D ( 'NONE', #179, #160, #6 ) ;
#122 = DATE_AND_TIME ( #159, #117 ) ;
#123 = COORDINATED_UNIVERSAL_TIME_OFFSET ( 1, 0, .AHEAD. ) ;
#124 = APPROVAL_DATE_TIME ( #141, #197 ) ;
#125 = CARTESIAN_POINT ( 'NONE',  ( 0.0000000000000000000, 0.0000000000000000000, 0.0000000000000000000 ) ) ;
#126 = LOCAL_TIME ( 7, 15, 44.00000000000000000, #86 ) ;
#127 = DIRECTION ( 'NONE',  ( -3.491481338843133355E-15, 1.224646799147353207E-16, -1.000000000000000000 ) ) ;
#128 = DIRECTION ( 'NONE',  ( -3.491481338843133355E-15, 1.224646799147353207E-16, -1.000000000000000000 ) ) ;
#129 = EDGE_LOOP ( 'NONE', ( #172 ) ) ;
#130 = CIRCLE ( 'NONE', #185, 0.8549999999999944311 ) ;
#131 = ORIENTED_EDGE ( 'NONE', *, *, #95, .T. ) ;
#132 = CARTESIAN_POINT ( 'NONE',  ( 4.189777606611760657E-14, 0.8549999999999928768, 12.00000000000000178 ) ) ;
#133 = PERSON_AND_ORGANIZATION ( #174, #206 ) ;
#134 = AXIS2_PLACEMENT_3D ( 'NONE', #12, #101, #81 ) ;
#135 = CC_DESIGN_SECURITY_CLASSIFICATION ( #94, ( #64 ) ) ;
#136 = PRODUCT_DEFINITION_SHAPE ( 'NONE', 'NONE',  #20 ) ;
#137 = APPLICATION_PROTOCOL_DEFINITION ( 'international standard', 'config_control_design', 1994, #118 ) ;
#138 = COORDINATED_UNIVERSAL_TIME_OFFSET ( 1, 0, .AHEAD. ) ;
#139 = AXIS2_PLACEMENT_3D ( 'NONE', #25, #78, #9 ) ;
#140 = LOCAL_TIME ( 7, 15, 44.00000000000000000, #103 ) ;
#141 = DATE_AND_TIME ( #158, #8 ) ;
#142 = APPROVAL_DATE_TIME ( #223, #82 ) ;
#143 = DIRECTION ( 'NONE',  ( -3.491481338843133355E-15, 1.224646799147353207E-16, -1.000000000000000000 ) ) ;
#144 = EDGE_LOOP ( 'NONE', ( #147 ) ) ;
#145 = DIRECTION ( 'NONE',  ( 4.275831445896958607E-31, 1.000000000000000000, 1.224646799147353454E-16 ) ) ;
#146 = DIRECTION ( 'NONE',  ( 3.491481338843133355E-15, -1.224646799147353207E-16, 1.000000000000000000 ) ) ;
#147 = ORIENTED_EDGE ( 'NONE', *, *, #153, .T. ) ;
#148 = DESIGN_CONTEXT ( 'detailed design', #118, 'design' ) ;
#149 = DIRECTION ( 'NONE',  ( 0.0000000000000000000, 1.000000000000000000, 0.0000000000000000000 ) ) ;
#150 = VERTEX_POINT ( 'NONE', #69 ) ;
#151 = CIRCLE ( 'NONE', #116, 0.8549999999999944311 ) ;
#152 = CC_DESIGN_PERSON_AND_ORGANIZATION_ASSIGNMENT ( #2, #24, ( #64 ) ) ;
#153 = EDGE_CURVE ( 'NONE', #48, #48, #215, .T. ) ;
#154 = CALENDAR_DATE ( 2021, 8, 10 ) ;
#155 = SHAPE_DEFINITION_REPRESENTATION ( #136, #77 ) ;
#156 = DATE_TIME_ROLE ( 'creation_date' ) ;
#157 = AXIS2_PLACEMENT_3D ( 'NONE', #114, #202, #221 ) ;
#158 = CALENDAR_DATE ( 2021, 8, 10 ) ;
#159 = CALENDAR_DATE ( 2021, 8, 10 ) ;
#160 = DIRECTION ( 'NONE',  ( -3.491481338843133355E-15, 1.224646799147353207E-16, -1.000000000000000000 ) ) ;
#161 = EDGE_LOOP ( 'NONE', ( #56 ) ) ;
#162 = ORIENTED_EDGE ( 'NONE', *, *, #153, .F. ) ;
#163 = ORIENTED_EDGE ( 'NONE', *, *, #213, .F. ) ;
#164 = FACE_OUTER_BOUND ( 'NONE', #79, .T. ) ;
#165 = PRODUCT ( '55423', '55423', '', ( #187 ) ) ;
#166 = CIRCLE ( 'NONE', #57, 0.8549999999999935429 ) ;
#167 =( NAMED_UNIT ( * ) SI_UNIT ( $, .STERADIAN. ) SOLID_ANGLE_UNIT ( ) );
#168 = CYLINDRICAL_SURFACE ( 'NONE', #134, 0.9999999999999988898 ) ;
#169 = PERSON_AND_ORGANIZATION ( #174, #206 ) ;
#170 = CARTESIAN_POINT ( 'NONE',  ( 4.189777606611760657E-14, -1.469576158976824144E-15, 12.00000000000000178 ) ) ;
#171 = ADVANCED_FACE ( 'NONE', ( #96, #34 ), #168, .T. ) ;
#172 = ORIENTED_EDGE ( 'NONE', *, *, #204, .F. ) ;
#173 = CARTESIAN_POINT ( 'NONE',  ( 4.277465241163808914E-14, 0.9999999999999954481, 12.25114736709749508 ) ) ;
#174 = PERSON ( 'UNSPECIFIED', 'UNSPECIFIED', 'UNSPECIFIED', ('UNSPECIFIED'), ('UNSPECIFIED'), ('UNSPECIFIED') ) ;
#175 = PERSON_AND_ORGANIZATION ( #174, #206 ) ;
#176 = EDGE_LOOP ( 'NONE', ( #163 ) ) ;
#177 = PLANE ( 'NONE',  #32 ) ;
#178 = DIRECTION ( 'NONE',  ( -4.505099285116375508E-31, -1.000000000000000000, -1.268072716357324791E-16 ) ) ;
#179 = CARTESIAN_POINT ( 'NONE',  ( 1.319779946082704535E-13, -4.629164900776995227E-15, 37.79999999999999716 ) ) ;
#180 = UNCERTAINTY_MEASURE_WITH_UNIT (LENGTH_MEASURE( 1.000000000000000082E-05 ), #65, 'distance_accuracy_value', 'NONE');
#181 = DIRECTION ( 'NONE',  ( -3.491481338843133355E-15, 1.224646799147353207E-16, -1.000000000000000000 ) ) ;
#182 = CARTESIAN_POINT ( 'NONE',  ( 1.793699060986299093E-15, -6.291449389210600763E-17, 0.5137358292685656469 ) ) ;
#183 = CC_DESIGN_PERSON_AND_ORGANIZATION_ASSIGNMENT ( #175, #102, ( #94 ) ) ;
#184 = FACE_BOUND ( 'NONE', #129, .T. ) ;
#185 = AXIS2_PLACEMENT_3D ( 'NONE', #90, #127, #198 ) ;
#186 = CC_DESIGN_DATE_AND_TIME_ASSIGNMENT ( #122, #156, ( #20 ) ) ;
#187 = MECHANICAL_CONTEXT ( 'NONE', #105, 'mechanical' ) ;
#188 = APPROVAL_STATUS ( 'not_yet_approved' ) ;
#189 = LOCAL_TIME ( 7, 15, 44.00000000000000000, #138 ) ;
#190 = APPROVAL ( #22, 'UNSPECIFIED' ) ;
#191 = PRODUCT_RELATED_PRODUCT_CATEGORY ( 'detail', '', ( #165 ) ) ;
#192 = ORIENTED_EDGE ( 'NONE', *, *, #204, .T. ) ;
#193 = PERSON_AND_ORGANIZATION ( #174, #206 ) ;
#194 = CALENDAR_DATE ( 2021, 8, 10 ) ;
#195 = PLANE ( 'NONE',  #3 ) ;
#196 = AXIS2_PLACEMENT_3D ( 'NONE', #115, #50, #220 ) ;
#197 = APPROVAL ( #211, 'UNSPECIFIED' ) ;
#198 = DIRECTION ( 'NONE',  ( 0.0000000000000000000, 1.000000000000000000, 0.0000000000000000000 ) ) ;
#199 = FACE_OUTER_BOUND ( 'NONE', #27, .T. ) ;
#200 = CC_DESIGN_APPROVAL ( #190, ( #94 ) ) ;
#201 = EDGE_LOOP ( 'NONE', ( #93 ) ) ;
#202 = DIRECTION ( 'NONE',  ( -3.491481338843133355E-15, 1.224646799147353207E-16, -1.000000000000000000 ) ) ;
#203 = VERTEX_POINT ( 'NONE', #120 ) ;
#204 = EDGE_CURVE ( 'NONE', #150, #150, #151, .T. ) ;
#205 = CC_DESIGN_PERSON_AND_ORGANIZATION_ASSIGNMENT ( #55, #72, ( #20 ) ) ;
#206 = ORGANIZATION ( 'UNSPECIFIED', 'UNSPECIFIED', '' ) ;
#207 = CC_DESIGN_DATE_AND_TIME_ASSIGNMENT ( #4, #40, ( #94 ) ) ;
#208 = PERSON_AND_ORGANIZATION ( #174, #206 ) ;
#209 = CONICAL_SURFACE ( 'NONE', #110, 0.8000000000000009326, 0.7853981633974512766 ) ;
#210 = CALENDAR_DATE ( 2021, 8, 10 ) ;
#211 = APPROVAL_STATUS ( 'not_yet_approved' ) ;
#212 = ADVANCED_FACE ( 'NONE', ( #184, #80 ), #51, .T. ) ;
#213 = EDGE_CURVE ( 'NONE', #13, #13, #19, .T. ) ;
#214 = DIRECTION ( 'NONE',  ( 4.505099285116375508E-31, 1.000000000000000000, 1.268072716357324791E-16 ) ) ;
#215 = CIRCLE ( 'NONE', #28, 0.8000000000000009326 ) ;
#216 = FACE_OUTER_BOUND ( 'NONE', #46, .T. ) ;
#217 = CARTESIAN_POINT ( 'NONE',  ( 1.326762908760390423E-13, 5.999039130647367482E-33, 38.00000000000000000 ) ) ;
#218 = FACE_OUTER_BOUND ( 'NONE', #75, .T. ) ;
#219 = AXIS2_PLACEMENT_3D ( 'NONE', #125, #128, #145 ) ;
#220 = DIRECTION ( 'NONE',  ( 1.000000000000000000, 0.0000000000000000000, 0.0000000000000000000 ) ) ;
#221 = DIRECTION ( 'NONE',  ( 0.0000000000000000000, 1.000000000000000000, 0.0000000000000000000 ) ) ;
#222 = APPROVAL_PERSON_ORGANIZATION ( #193, #197, #39 ) ;
#223 = DATE_AND_TIME ( #154, #126 ) ;
ENDSEC;
END-ISO-10303-21;
