ISO-10303-21;
HEADER;
FILE_DESCRIPTION (( 'STEP AP203' ),
    '1' );
FILE_NAME ('55422.step',
    '2021-10-08T05:15:43',
    ( '' ),
    ( '' ),
    'SwSTEP 2.0',
    'SolidWorks 2019',
    '' );
FILE_SCHEMA (( 'CONFIG_CONTROL_DESIGN' ));
ENDSEC;

DATA;
#1 = FACE_OUTER_BOUND ( 'NONE', #53, .T. ) ;
#2 = FACE_BOUND ( 'NONE', #86, .T. ) ;
#3 = DIRECTION ( 'NONE',  ( 0.0000000000000000000, 1.000000000000000000, 0.0000000000000000000 ) ) ;
#4 = EDGE_CURVE ( 'NONE', #21, #21, #40, .T. ) ;
#5 = APPROVAL_STATUS ( 'not_yet_approved' ) ;
#6 = ORGANIZATION ( 'UNSPECIFIED', 'UNSPECIFIED', '' ) ;
#7 = SECURITY_CLASSIFICATION_LEVEL ( 'unclassified' ) ;
#8 = PERSON_AND_ORGANIZATION_ROLE ( 'creator' ) ;
#9 = CALENDAR_DATE ( 2021, 8, 10 ) ;
#10 = CC_DESIGN_PERSON_AND_ORGANIZATION_ASSIGNMENT ( #117, #180, ( #12 ) ) ;
#11 = EDGE_LOOP ( 'NONE', ( #167 ) ) ;
#12 = PRODUCT ( '55422', '55422', '', ( #132 ) ) ;
#13 = DIRECTION ( 'NONE',  ( 3.491481338843133355E-15, -1.224646799147353207E-16, 1.000000000000000000 ) ) ;
#14 = EDGE_LOOP ( 'NONE', ( #222 ) ) ;
#15 = LOCAL_TIME ( 7, 15, 43.00000000000000000, #215 ) ;
#16 = ORIENTED_EDGE ( 'NONE', *, *, #67, .T. ) ;
#17 = MANIFOLD_SOLID_BREP ( 'Corps-Déplacer/Copier1[1]', #127 ) ;
#18 = CYLINDRICAL_SURFACE ( 'NONE', #172, 0.9999999999999988898 ) ;
#19 = DIRECTION ( 'NONE',  ( -4.275831445896958607E-31, -1.000000000000000000, -1.224646799147353207E-16 ) ) ;
#20 = DIRECTION ( 'NONE',  ( 4.275831445896958607E-31, 1.000000000000000000, 1.224646799147353207E-16 ) ) ;
#21 = VERTEX_POINT ( 'NONE', #35 ) ;
#22 = APPROVAL_PERSON_ORGANIZATION ( #178, #156, #199 ) ;
#23 = VERTEX_POINT ( 'NONE', #157 ) ;
#24 = APPROVAL_DATE_TIME ( #160, #156 ) ;
#25 = APPROVAL_DATE_TIME ( #126, #59 ) ;
#26 =( GEOMETRIC_REPRESENTATION_CONTEXT ( 3 ) GLOBAL_UNCERTAINTY_ASSIGNED_CONTEXT ( ( #46 ) ) GLOBAL_UNIT_ASSIGNED_CONTEXT ( ( #56, #140, #188 ) ) REPRESENTATION_CONTEXT ( 'NONE', 'WORKASPACE' ) );
#27 = COORDINATED_UNIVERSAL_TIME_OFFSET ( 1, 0, .AHEAD. ) ;
#28 = CIRCLE ( 'NONE', #62, 1.000000000000000888 ) ;
#29 = CARTESIAN_POINT ( 'NONE',  ( 4.189777606611760026E-14, 6.373979076312833253E-33, 12.00000000000000000 ) ) ;
#30 = DIRECTION ( 'NONE',  ( -3.491481338843133355E-15, 1.224646799147353207E-16, -1.000000000000000000 ) ) ;
#31 = PRODUCT_RELATED_PRODUCT_CATEGORY ( 'detail', '', ( #12 ) ) ;
#32 = EDGE_LOOP ( 'NONE', ( #16 ) ) ;
#33 = CARTESIAN_POINT ( 'NONE',  ( 1.326762908760390423E-13, 5.999039130647367482E-33, 38.00000000000000000 ) ) ;
#34 = ADVANCED_FACE ( 'NONE', ( #104 ), #202, .T. ) ;
#35 = CARTESIAN_POINT ( 'NONE',  ( 1.783209592793397599E-15, 0.8499999999999934275, 0.5107315261734280964 ) ) ;
#36 = EDGE_CURVE ( 'NONE', #23, #23, #131, .T. ) ;
#37 = FACE_OUTER_BOUND ( 'NONE', #183, .T. ) ;
#38 = CARTESIAN_POINT ( 'NONE',  ( 4.189777606611760026E-14, -1.469576158976823947E-15, 12.00000000000000000 ) ) ;
#39 = CARTESIAN_POINT ( 'NONE',  ( 0.0000000000000000000, 0.0000000000000000000, 0.0000000000000000000 ) ) ;
#40 = CIRCLE ( 'NONE', #194, 0.8499999999999935385 ) ;
#41 = COORDINATED_UNIVERSAL_TIME_OFFSET ( 1, 0, .AHEAD. ) ;
#42 = DATE_TIME_ROLE ( 'creation_date' ) ;
#43 = DATE_AND_TIME ( #158, #216 ) ;
#44 = CALENDAR_DATE ( 2021, 8, 10 ) ;
#45 = PERSON_AND_ORGANIZATION ( #170, #6 ) ;
#46 = UNCERTAINTY_MEASURE_WITH_UNIT (LENGTH_MEASURE( 1.000000000000000082E-05 ), #56, 'distance_accuracy_value', 'NONE');
#47 = DIRECTION ( 'NONE',  ( -4.275831445896958607E-31, -1.000000000000000000, -1.224646799147353207E-16 ) ) ;
#48 = AXIS2_PLACEMENT_3D ( 'NONE', #143, #79, #19 ) ;
#49 = ORIENTED_EDGE ( 'NONE', *, *, #106, .T. ) ;
#50 = CC_DESIGN_PERSON_AND_ORGANIZATION_ASSIGNMENT ( #45, #81, ( #221 ) ) ;
#51 = CARTESIAN_POINT ( 'NONE',  ( 1.783209592793397204E-15, -6.254657287519313187E-17, 0.5107315261734279854 ) ) ;
#52 = AXIS2_PLACEMENT_3D ( 'NONE', #207, #85, #148 ) ;
#53 = EDGE_LOOP ( 'NONE', ( #203 ) ) ;
#54 = CARTESIAN_POINT ( 'NONE',  ( 1.319779946082704535E-13, -4.629164900776995227E-15, 37.79999999999999716 ) ) ;
#55 = ADVANCED_FACE ( 'NONE', ( #219 ), #69, .T. ) ;
#56 =( LENGTH_UNIT ( ) NAMED_UNIT ( * ) SI_UNIT ( .MILLI., .METRE. ) );
#57 = LOCAL_TIME ( 7, 15, 43.00000000000000000, #177 ) ;
#58 = DIRECTION ( 'NONE',  ( -3.491481338843133355E-15, 1.224646799147353207E-16, -1.000000000000000000 ) ) ;
#59 = APPROVAL ( #164, 'UNSPECIFIED' ) ;
#60 = DIRECTION ( 'NONE',  ( -3.491481338843133355E-15, 1.224646799147353207E-16, -1.000000000000000000 ) ) ;
#61 = APPROVAL_ROLE ( '' ) ;
#62 = AXIS2_PLACEMENT_3D ( 'NONE', #54, #75, #211 ) ;
#63 = APPROVAL_DATE_TIME ( #84, #187 ) ;
#64 = ADVANCED_FACE ( 'NONE', ( #204, #120 ), #155, .T. ) ;
#65 = APPROVAL_ROLE ( '' ) ;
#66 = AXIS2_PLACEMENT_3D ( 'NONE', #119, #13, #133 ) ;
#67 = EDGE_CURVE ( 'NONE', #91, #91, #88, .T. ) ;
#68 = CC_DESIGN_DATE_AND_TIME_ASSIGNMENT ( #128, #42, ( #114 ) ) ;
#69 = PLANE ( 'NONE',  #176 ) ;
#70 = EDGE_LOOP ( 'NONE', ( #181 ) ) ;
#71 = DIRECTION ( 'NONE',  ( 3.491481338843133355E-15, -1.224646799147353207E-16, 1.000000000000000000 ) ) ;
#72 = ORIENTED_EDGE ( 'NONE', *, *, #152, .T. ) ;
#73 = DIRECTION ( 'NONE',  ( 4.531599869146471561E-31, 1.000000000000000000, 1.275531967630014860E-16 ) ) ;
#74 = AXIS2_PLACEMENT_3D ( 'NONE', #190, #60, #3 ) ;
#75 = DIRECTION ( 'NONE',  ( -3.491481338843133355E-15, 1.224646799147353207E-16, -1.000000000000000000 ) ) ;
#76 = CARTESIAN_POINT ( 'NONE',  ( 1.326762908760390423E-13, -4.653657836759941941E-15, 38.00000000000000000 ) ) ;
#77 = CIRCLE ( 'NONE', #121, 0.8000000000000009326 ) ;
#78 = VERTEX_POINT ( 'NONE', #208 ) ;
#79 = DIRECTION ( 'NONE',  ( 3.491481338843133355E-15, -1.224646799147353207E-16, 1.000000000000000000 ) ) ;
#80 = APPLICATION_PROTOCOL_DEFINITION ( 'international standard', 'config_control_design', 1994, #159 ) ;
#81 = PERSON_AND_ORGANIZATION_ROLE ( 'classification_officer' ) ;
#82 = PERSON_AND_ORGANIZATION ( #170, #6 ) ;
#83 = APPROVAL_PERSON_ORGANIZATION ( #115, #187, #61 ) ;
#84 = DATE_AND_TIME ( #116, #15 ) ;
#85 = DIRECTION ( 'NONE',  ( -3.491481338843133355E-15, 1.224646799147353207E-16, -1.000000000000000000 ) ) ;
#86 = EDGE_LOOP ( 'NONE', ( #72 ) ) ;
#87 = ORIENTED_EDGE ( 'NONE', *, *, #152, .F. ) ;
#88 = CIRCLE ( 'NONE', #209, 0.9999999999999970024 ) ;
#89 = EDGE_LOOP ( 'NONE', ( #100 ) ) ;
#90 = CC_DESIGN_APPROVAL ( #59, ( #114 ) ) ;
#91 = VERTEX_POINT ( 'NONE', #141 ) ;
#92 = CARTESIAN_POINT ( 'NONE',  ( 1.319779946082704535E-13, 0.9999999999999963363, 37.79999999999999716 ) ) ;
#93 = PERSON_AND_ORGANIZATION_ROLE ( 'design_supplier' ) ;
#94 = PERSON_AND_ORGANIZATION_ROLE ( 'creator' ) ;
#95 = AXIS2_PLACEMENT_3D ( 'NONE', #139, #71, #134 ) ;
#96 = COORDINATED_UNIVERSAL_TIME_OFFSET ( 1, 0, .AHEAD. ) ;
#97 = DESIGN_CONTEXT ( 'detailed design', #205, 'design' ) ;
#98 = APPROVAL_STATUS ( 'not_yet_approved' ) ;
#99 = AXIS2_PLACEMENT_3D ( 'NONE', #193, #146, #162 ) ;
#100 = ORIENTED_EDGE ( 'NONE', *, *, #67, .F. ) ;
#101 = ADVANCED_FACE ( 'NONE', ( #186, #154 ), #122, .T. ) ;
#102 = CC_DESIGN_PERSON_AND_ORGANIZATION_ASSIGNMENT ( #197, #94, ( #138 ) ) ;
#103 = ORIENTED_EDGE ( 'NONE', *, *, #36, .F. ) ;
#104 = FACE_OUTER_BOUND ( 'NONE', #70, .T. ) ;
#105 = CIRCLE ( 'NONE', #185, 0.8499999999999946487 ) ;
#106 = EDGE_CURVE ( 'NONE', #144, #144, #28, .T. ) ;
#107 = EDGE_LOOP ( 'NONE', ( #136 ) ) ;
#108 = DIRECTION ( 'NONE',  ( -3.491481338843133355E-15, 1.224646799147353207E-16, -1.000000000000000000 ) ) ;
#109 = DIRECTION ( 'NONE',  ( 0.0000000000000000000, 1.000000000000000000, 0.0000000000000000000 ) ) ;
#110 = CC_DESIGN_SECURITY_CLASSIFICATION ( #221, ( #138 ) ) ;
#111 = CC_DESIGN_DATE_AND_TIME_ASSIGNMENT ( #43, #217, ( #221 ) ) ;
#112 = FACE_OUTER_BOUND ( 'NONE', #89, .T. ) ;
#113 = PLANE ( 'NONE',  #198 ) ;
#114 = PRODUCT_DEFINITION ( 'UNKNOWN', '', #138, #97 ) ;
#115 = PERSON_AND_ORGANIZATION ( #170, #6 ) ;
#116 = CALENDAR_DATE ( 2021, 8, 10 ) ;
#117 = PERSON_AND_ORGANIZATION ( #170, #6 ) ;
#118 = CC_DESIGN_APPROVAL ( #187, ( #221 ) ) ;
#119 = CARTESIAN_POINT ( 'NONE',  ( 4.280488952700086418E-14, -1.501393416138571921E-15, 12.25980762113533906 ) ) ;
#120 = FACE_OUTER_BOUND ( 'NONE', #32, .T. ) ;
#121 = AXIS2_PLACEMENT_3D ( 'NONE', #76, #108, #109 ) ;
#122 = CYLINDRICAL_SURFACE ( 'NONE', #179, 0.8499999999999940936 ) ;
#123 = DIRECTION ( 'NONE',  ( 0.0000000000000000000, 1.000000000000000000, 0.0000000000000000000 ) ) ;
#124 = DIRECTION ( 'NONE',  ( 4.275831445896958607E-31, 1.000000000000000000, 1.224646799147353207E-16 ) ) ;
#125 = CARTESIAN_POINT ( 'NONE',  ( 4.189777606611760026E-14, 0.8499999999999930944, 12.00000000000000000 ) ) ;
#126 = DATE_AND_TIME ( #44, #206 ) ;
#127 = CLOSED_SHELL ( 'NONE', ( #201, #64, #212, #169, #135 ) ) ;
#128 = DATE_AND_TIME ( #195, #218 ) ;
#129 = CC_DESIGN_PERSON_AND_ORGANIZATION_ASSIGNMENT ( #196, #8, ( #114 ) ) ;
#130 = PERSON_AND_ORGANIZATION ( #170, #6 ) ;
#131 = CIRCLE ( 'NONE', #52, 0.8499999999999946487 ) ;
#132 = MECHANICAL_CONTEXT ( 'NONE', #159, 'mechanical' ) ;
#133 = DIRECTION ( 'NONE',  ( 0.0000000000000000000, -1.000000000000000000, 0.0000000000000000000 ) ) ;
#134 = DIRECTION ( 'NONE',  ( -4.531599869146471561E-31, -1.000000000000000000, -1.275531967630014860E-16 ) ) ;
#135 = ADVANCED_FACE ( 'NONE', ( #174 ), #113, .F. ) ;
#136 = ORIENTED_EDGE ( 'NONE', *, *, #4, .F. ) ;
#137 = PRODUCT_DEFINITION_SHAPE ( 'NONE', 'NONE',  #114 ) ;
#138 = PRODUCT_DEFINITION_FORMATION_WITH_SPECIFIED_SOURCE ( 'ANY', '', #12, .NOT_KNOWN. ) ;
#139 = CARTESIAN_POINT ( 'NONE',  ( 1.783209592793397204E-15, -6.254657287519313187E-17, 0.5107315261734279854 ) ) ;
#140 =( NAMED_UNIT ( * ) PLANE_ANGLE_UNIT ( ) SI_UNIT ( $, .RADIAN. ) );
#141 = CARTESIAN_POINT ( 'NONE',  ( 4.280488952700086418E-14, 0.9999999999999954481, 12.25980762113533906 ) ) ;
#142 = PLANE ( 'NONE',  #48 ) ;
#143 = CARTESIAN_POINT ( 'NONE',  ( 4.189777606611760026E-14, 6.373979076312833253E-33, 12.00000000000000000 ) ) ;
#144 = VERTEX_POINT ( 'NONE', #92 ) ;
#145 = SHAPE_DEFINITION_REPRESENTATION ( #137, #189 ) ;
#146 = DIRECTION ( 'NONE',  ( 0.0000000000000000000, 0.0000000000000000000, 1.000000000000000000 ) ) ;
#147 = CC_DESIGN_APPROVAL ( #156, ( #138 ) ) ;
#148 = DIRECTION ( 'NONE',  ( 0.0000000000000000000, 1.000000000000000000, 0.0000000000000000000 ) ) ;
#149 = APPROVAL_PERSON_ORGANIZATION ( #130, #59, #65 ) ;
#150 = ORIENTED_EDGE ( 'NONE', *, *, #214, .F. ) ;
#151 = CLOSED_SHELL ( 'NONE', ( #34, #101, #55 ) ) ;
#152 = EDGE_CURVE ( 'NONE', #78, #78, #77, .T. ) ;
#153 = DIRECTION ( 'NONE',  ( -3.491481338843133355E-15, 1.224646799147353207E-16, -1.000000000000000000 ) ) ;
#154 = FACE_OUTER_BOUND ( 'NONE', #11, .T. ) ;
#155 = CONICAL_SURFACE ( 'NONE', #66, 0.9999999999999970024, 0.5235987755982942637 ) ;
#156 = APPROVAL ( #5, 'UNSPECIFIED' ) ;
#157 = CARTESIAN_POINT ( 'NONE',  ( 4.189777606611760026E-14, 0.8499999999999930944, 12.00000000000000000 ) ) ;
#158 = CALENDAR_DATE ( 2021, 8, 10 ) ;
#159 = APPLICATION_CONTEXT ( 'configuration controlled 3d designs of mechanical parts and assemblies' ) ;
#160 = DATE_AND_TIME ( #9, #57 ) ;
#161 = MANIFOLD_SOLID_BREP ( 'Corps-Déplacer/Copier1[2]', #151 ) ;
#162 = DIRECTION ( 'NONE',  ( 1.000000000000000000, 0.0000000000000000000, 0.0000000000000000000 ) ) ;
#163 = APPLICATION_PROTOCOL_DEFINITION ( 'international standard', 'config_control_design', 1994, #205 ) ;
#164 = APPROVAL_STATUS ( 'not_yet_approved' ) ;
#165 = CC_DESIGN_PERSON_AND_ORGANIZATION_ASSIGNMENT ( #82, #93, ( #138 ) ) ;
#166 = EDGE_LOOP ( 'NONE', ( #103 ) ) ;
#167 = ORIENTED_EDGE ( 'NONE', *, *, #214, .T. ) ;
#168 = EDGE_LOOP ( 'NONE', ( #87 ) ) ;
#169 = ADVANCED_FACE ( 'NONE', ( #173, #2 ), #184, .T. ) ;
#170 = PERSON ( 'UNSPECIFIED', 'UNSPECIFIED', 'UNSPECIFIED', ('UNSPECIFIED'), ('UNSPECIFIED'), ('UNSPECIFIED') ) ;
#171 = CARTESIAN_POINT ( 'NONE',  ( 0.0000000000000000000, 0.0000000000000000000, 0.0000000000000000000 ) ) ;
#172 = AXIS2_PLACEMENT_3D ( 'NONE', #39, #175, #210 ) ;
#173 = FACE_OUTER_BOUND ( 'NONE', #14, .T. ) ;
#174 = FACE_OUTER_BOUND ( 'NONE', #168, .T. ) ;
#175 = DIRECTION ( 'NONE',  ( -3.491481338843133355E-15, 1.224646799147353207E-16, -1.000000000000000000 ) ) ;
#176 = AXIS2_PLACEMENT_3D ( 'NONE', #29, #220, #47 ) ;
#177 = COORDINATED_UNIVERSAL_TIME_OFFSET ( 1, 0, .AHEAD. ) ;
#178 = PERSON_AND_ORGANIZATION ( #170, #6 ) ;
#179 = AXIS2_PLACEMENT_3D ( 'NONE', #171, #191, #124 ) ;
#180 = PERSON_AND_ORGANIZATION_ROLE ( 'design_owner' ) ;
#181 = ORIENTED_EDGE ( 'NONE', *, *, #4, .T. ) ;
#182 = CARTESIAN_POINT ( 'NONE',  ( 4.280488952700086418E-14, -1.501393416138571921E-15, 12.25980762113533906 ) ) ;
#183 = EDGE_LOOP ( 'NONE', ( #49 ) ) ;
#184 = CONICAL_SURFACE ( 'NONE', #74, 0.8000000000000009326, 0.7853981633974512766 ) ;
#185 = AXIS2_PLACEMENT_3D ( 'NONE', #38, #58, #192 ) ;
#186 = FACE_OUTER_BOUND ( 'NONE', #107, .T. ) ;
#187 = APPROVAL ( #98, 'UNSPECIFIED' ) ;
#188 =( NAMED_UNIT ( * ) SI_UNIT ( $, .STERADIAN. ) SOLID_ANGLE_UNIT ( ) );
#189 = ADVANCED_BREP_SHAPE_REPRESENTATION ( '55422', ( #17, #161, #99 ), #26 ) ;
#190 = CARTESIAN_POINT ( 'NONE',  ( 1.326762908760390423E-13, -4.653657836759941941E-15, 38.00000000000000000 ) ) ;
#191 = DIRECTION ( 'NONE',  ( -3.491481338843133355E-15, 1.224646799147353207E-16, -1.000000000000000000 ) ) ;
#192 = DIRECTION ( 'NONE',  ( 0.0000000000000000000, 1.000000000000000000, 0.0000000000000000000 ) ) ;
#193 = CARTESIAN_POINT ( 'NONE',  ( 0.0000000000000000000, 0.0000000000000000000, 0.0000000000000000000 ) ) ;
#194 = AXIS2_PLACEMENT_3D ( 'NONE', #51, #223, #73 ) ;
#195 = CALENDAR_DATE ( 2021, 8, 10 ) ;
#196 = PERSON_AND_ORGANIZATION ( #170, #6 ) ;
#197 = PERSON_AND_ORGANIZATION ( #170, #6 ) ;
#198 = AXIS2_PLACEMENT_3D ( 'NONE', #33, #153, #20 ) ;
#199 = APPROVAL_ROLE ( '' ) ;
#200 = EDGE_LOOP ( 'NONE', ( #150 ) ) ;
#201 = ADVANCED_FACE ( 'NONE', ( #1 ), #142, .F. ) ;
#202 = CONICAL_SURFACE ( 'NONE', #95, 0.8499999999999935385, 1.029744258676649649 ) ;
#203 = ORIENTED_EDGE ( 'NONE', *, *, #36, .T. ) ;
#204 = FACE_BOUND ( 'NONE', #166, .T. ) ;
#205 = APPLICATION_CONTEXT ( 'configuration controlled 3d designs of mechanical parts and assemblies' ) ;
#206 = LOCAL_TIME ( 7, 15, 43.00000000000000000, #41 ) ;
#207 = CARTESIAN_POINT ( 'NONE',  ( 4.189777606611760026E-14, -1.469576158976823947E-15, 12.00000000000000000 ) ) ;
#208 = CARTESIAN_POINT ( 'NONE',  ( 1.326762908760390423E-13, 0.7999999999999962697, 38.00000000000000000 ) ) ;
#209 = AXIS2_PLACEMENT_3D ( 'NONE', #182, #30, #123 ) ;
#210 = DIRECTION ( 'NONE',  ( 4.275831445896957731E-31, 1.000000000000000000, 1.224646799147353454E-16 ) ) ;
#211 = DIRECTION ( 'NONE',  ( 0.0000000000000000000, 1.000000000000000000, 0.0000000000000000000 ) ) ;
#212 = ADVANCED_FACE ( 'NONE', ( #112, #37 ), #18, .T. ) ;
#213 = VERTEX_POINT ( 'NONE', #125 ) ;
#214 = EDGE_CURVE ( 'NONE', #213, #213, #105, .T. ) ;
#215 = COORDINATED_UNIVERSAL_TIME_OFFSET ( 1, 0, .AHEAD. ) ;
#216 = LOCAL_TIME ( 7, 15, 43.00000000000000000, #27 ) ;
#217 = DATE_TIME_ROLE ( 'classification_date' ) ;
#218 = LOCAL_TIME ( 7, 15, 43.00000000000000000, #96 ) ;
#219 = FACE_OUTER_BOUND ( 'NONE', #200, .T. ) ;
#220 = DIRECTION ( 'NONE',  ( 3.491481338843133355E-15, -1.224646799147353207E-16, 1.000000000000000000 ) ) ;
#221 = SECURITY_CLASSIFICATION ( '', '', #7 ) ;
#222 = ORIENTED_EDGE ( 'NONE', *, *, #106, .F. ) ;
#223 = DIRECTION ( 'NONE',  ( -3.491481338843133355E-15, 1.224646799147353207E-16, -1.000000000000000000 ) ) ;
ENDSEC;
END-ISO-10303-21;
