ISO-10303-21;
HEADER;
FILE_DESCRIPTION (( 'STEP AP203' ),
    '1' );
FILE_NAME ('55420.step',
    '2021-10-08T05:15:42',
    ( '' ),
    ( '' ),
    'SwSTEP 2.0',
    'SolidWorks 2019',
    '' );
FILE_SCHEMA (( 'CONFIG_CONTROL_DESIGN' ));
ENDSEC;

DATA;
#1 = ORIENTED_EDGE ( 'NONE', *, *, #109, .T. ) ;
#2 = LOCAL_TIME ( 7, 15, 42.00000000000000000, #132 ) ;
#3 = DIRECTION ( 'NONE',  ( 3.491481338843133355E-15, -1.224646799147353207E-16, 1.000000000000000000 ) ) ;
#4 = APPROVAL ( #164, 'UNSPECIFIED' ) ;
#5 = CARTESIAN_POINT ( 'NONE',  ( 1.326762908760390423E-13, 0.7999999999999962697, 38.00000000000000000 ) ) ;
#6 = CLOSED_SHELL ( 'NONE', ( #168, #16, #37, #141, #147 ) ) ;
#7 = FACE_OUTER_BOUND ( 'NONE', #38, .T. ) ;
#8 = DIRECTION ( 'NONE',  ( -3.491481338843133355E-15, 1.224646799147353207E-16, -1.000000000000000000 ) ) ;
#9 = DIRECTION ( 'NONE',  ( 3.491481338843133355E-15, -1.224646799147353207E-16, 1.000000000000000000 ) ) ;
#10 = FACE_OUTER_BOUND ( 'NONE', #210, .T. ) ;
#11 = PRODUCT ( '55420', '55420', '', ( #87 ) ) ;
#12 = PERSON_AND_ORGANIZATION ( #86, #180 ) ;
#13 = APPROVAL_STATUS ( 'not_yet_approved' ) ;
#14 = EDGE_CURVE ( 'NONE', #62, #62, #172, .T. ) ;
#15 = DATE_AND_TIME ( #203, #200 ) ;
#16 = ADVANCED_FACE ( 'NONE', ( #173, #211 ), #196, .T. ) ;
#17 = AXIS2_PLACEMENT_3D ( 'NONE', #115, #213, #197 ) ;
#18 = ORIENTED_EDGE ( 'NONE', *, *, #32, .F. ) ;
#19 = AXIS2_PLACEMENT_3D ( 'NONE', #55, #137, #209 ) ;
#20 = CARTESIAN_POINT ( 'NONE',  ( 4.286536375772641427E-14, -1.503514566616021813E-15, 12.27712812921102881 ) ) ;
#21 = CYLINDRICAL_SURFACE ( 'NONE', #222, 0.8399999999999938627 ) ;
#22 = CARTESIAN_POINT ( 'NONE',  ( 4.286536375772641427E-14, -1.503514566616021813E-15, 12.27712812921102881 ) ) ;
#23 = APPROVAL_PERSON_ORGANIZATION ( #12, #4, #146 ) ;
#24 = CC_DESIGN_PERSON_AND_ORGANIZATION_ASSIGNMENT ( #165, #186, ( #166 ) ) ;
#25 =( LENGTH_UNIT ( ) NAMED_UNIT ( * ) SI_UNIT ( .MILLI., .METRE. ) );
#26 = UNCERTAINTY_MEASURE_WITH_UNIT (LENGTH_MEASURE( 1.000000000000000082E-05 ), #25, 'distance_accuracy_value', 'NONE');
#27 = DIRECTION ( 'NONE',  ( 4.275831445896958607E-31, 1.000000000000000000, 1.224646799147353207E-16 ) ) ;
#28 = DIRECTION ( 'NONE',  ( -3.491481338843133355E-15, 1.224646799147353207E-16, -1.000000000000000000 ) ) ;
#29 = CIRCLE ( 'NONE', #212, 1.000000000000000888 ) ;
#30 = CALENDAR_DATE ( 2021, 8, 10 ) ;
#31 = APPROVAL_DATE_TIME ( #149, #35 ) ;
#32 = EDGE_CURVE ( 'NONE', #95, #95, #153, .T. ) ;
#33 = SHAPE_DEFINITION_REPRESENTATION ( #49, #101 ) ;
#34 = PERSON_AND_ORGANIZATION ( #86, #180 ) ;
#35 = APPROVAL ( #201, 'UNSPECIFIED' ) ;
#36 = AXIS2_PLACEMENT_3D ( 'NONE', #20, #3, #71 ) ;
#37 = ADVANCED_FACE ( 'NONE', ( #40, #110 ), #154, .T. ) ;
#38 = EDGE_LOOP ( 'NONE', ( #192 ) ) ;
#39 = ORIENTED_EDGE ( 'NONE', *, *, #14, .F. ) ;
#40 = FACE_OUTER_BOUND ( 'NONE', #189, .T. ) ;
#41 = PLANE ( 'NONE',  #133 ) ;
#42 = VERTEX_POINT ( 'NONE', #5 ) ;
#43 = CC_DESIGN_APPROVAL ( #35, ( #187 ) ) ;
#44 =( NAMED_UNIT ( * ) SI_UNIT ( $, .STERADIAN. ) SOLID_ANGLE_UNIT ( ) );
#45 = DESIGN_CONTEXT ( 'detailed design', #184, 'design' ) ;
#46 = CARTESIAN_POINT ( 'NONE',  ( 1.326762908760390423E-13, 5.999039130647367482E-33, 38.00000000000000000 ) ) ;
#47 = VERTEX_POINT ( 'NONE', #57 ) ;
#48 = CALENDAR_DATE ( 2021, 8, 10 ) ;
#49 = PRODUCT_DEFINITION_SHAPE ( 'NONE', 'NONE',  #220 ) ;
#50 = COORDINATED_UNIVERSAL_TIME_OFFSET ( 1, 0, .AHEAD. ) ;
#51 = AXIS2_PLACEMENT_3D ( 'NONE', #107, #70, #190 ) ;
#52 = DIRECTION ( 'NONE',  ( 1.000000000000000000, 0.0000000000000000000, 0.0000000000000000000 ) ) ;
#53 = EDGE_LOOP ( 'NONE', ( #157 ) ) ;
#54 = EDGE_LOOP ( 'NONE', ( #188 ) ) ;
#55 = CARTESIAN_POINT ( 'NONE',  ( 4.189777606611760026E-14, -1.469576158976823947E-15, 12.00000000000000000 ) ) ;
#56 = FACE_OUTER_BOUND ( 'NONE', #156, .T. ) ;
#57 = CARTESIAN_POINT ( 'NONE',  ( 1.319779946082704535E-13, 0.9999999999999963363, 37.79999999999999716 ) ) ;
#58 = FACE_OUTER_BOUND ( 'NONE', #54, .T. ) ;
#59 = AXIS2_PLACEMENT_3D ( 'NONE', #161, #78, #144 ) ;
#60 = CONICAL_SURFACE ( 'NONE', #17, 0.8399999999999935296, 1.029744258676649649 ) ;
#61 = DIRECTION ( 'NONE',  ( -4.275831445896958607E-31, -1.000000000000000000, -1.224646799147353207E-16 ) ) ;
#62 = VERTEX_POINT ( 'NONE', #142 ) ;
#63 = PERSON_AND_ORGANIZATION_ROLE ( 'design_owner' ) ;
#64 = CC_DESIGN_PERSON_AND_ORGANIZATION_ASSIGNMENT ( #167, #121, ( #220 ) ) ;
#65 =( GEOMETRIC_REPRESENTATION_CONTEXT ( 3 ) GLOBAL_UNCERTAINTY_ASSIGNED_CONTEXT ( ( #26 ) ) GLOBAL_UNIT_ASSIGNED_CONTEXT ( ( #25, #178, #44 ) ) REPRESENTATION_CONTEXT ( 'NONE', 'WORKASPACE' ) );
#66 = APPROVAL_DATE_TIME ( #199, #176 ) ;
#67 = PERSON_AND_ORGANIZATION ( #86, #180 ) ;
#68 = DIRECTION ( 'NONE',  ( -3.491481338843133355E-15, 1.224646799147353207E-16, -1.000000000000000000 ) ) ;
#69 = EDGE_LOOP ( 'NONE', ( #138 ) ) ;
#70 = DIRECTION ( 'NONE',  ( -3.491481338843133355E-15, 1.224646799147353207E-16, -1.000000000000000000 ) ) ;
#71 = DIRECTION ( 'NONE',  ( 0.0000000000000000000, -1.000000000000000000, 0.0000000000000000000 ) ) ;
#72 = CC_DESIGN_DATE_AND_TIME_ASSIGNMENT ( #82, #85, ( #166 ) ) ;
#73 = APPROVAL_PERSON_ORGANIZATION ( #179, #176, #183 ) ;
#74 = CARTESIAN_POINT ( 'NONE',  ( 1.326762908760390423E-13, -4.653657836759941941E-15, 38.00000000000000000 ) ) ;
#75 = FACE_OUTER_BOUND ( 'NONE', #69, .T. ) ;
#76 = CARTESIAN_POINT ( 'NONE',  ( 1.319779946082704535E-13, -4.629164900776995227E-15, 37.79999999999999716 ) ) ;
#77 = AXIS2_PLACEMENT_3D ( 'NONE', #223, #68, #135 ) ;
#78 = DIRECTION ( 'NONE',  ( -3.491481338843133355E-15, 1.224646799147353207E-16, -1.000000000000000000 ) ) ;
#79 = ADVANCED_FACE ( 'NONE', ( #10 ), #41, .T. ) ;
#80 = APPLICATION_PROTOCOL_DEFINITION ( 'international standard', 'config_control_design', 1994, #184 ) ;
#81 = MANIFOLD_SOLID_BREP ( 'Corps-Déplacer/Copier1[1]', #6 ) ;
#82 = DATE_AND_TIME ( #218, #219 ) ;
#83 = CLOSED_SHELL ( 'NONE', ( #98, #104, #79 ) ) ;
#84 = MANIFOLD_SOLID_BREP ( 'Corps-Déplacer/Copier1[2]', #83 ) ;
#85 = DATE_TIME_ROLE ( 'classification_date' ) ;
#86 = PERSON ( 'UNSPECIFIED', 'UNSPECIFIED', 'UNSPECIFIED', ('UNSPECIFIED'), ('UNSPECIFIED'), ('UNSPECIFIED') ) ;
#87 = MECHANICAL_CONTEXT ( 'NONE', #174, 'mechanical' ) ;
#88 = COORDINATED_UNIVERSAL_TIME_OFFSET ( 1, 0, .AHEAD. ) ;
#89 = CONICAL_SURFACE ( 'NONE', #59, 0.8000000000000009326, 0.7853981633974512766 ) ;
#90 = ORIENTED_EDGE ( 'NONE', *, *, #92, .F. ) ;
#91 = CC_DESIGN_APPROVAL ( #4, ( #166 ) ) ;
#92 = EDGE_CURVE ( 'NONE', #47, #47, #29, .T. ) ;
#93 = DIRECTION ( 'NONE',  ( 0.0000000000000000000, 1.000000000000000000, 0.0000000000000000000 ) ) ;
#94 = FACE_BOUND ( 'NONE', #53, .T. ) ;
#95 = VERTEX_POINT ( 'NONE', #214 ) ;
#96 = DIRECTION ( 'NONE',  ( 3.491481338843133355E-15, -1.224646799147353207E-16, 1.000000000000000000 ) ) ;
#97 = CARTESIAN_POINT ( 'NONE',  ( 0.0000000000000000000, 0.0000000000000000000, 0.0000000000000000000 ) ) ;
#98 = ADVANCED_FACE ( 'NONE', ( #56 ), #60, .T. ) ;
#99 = PERSON_AND_ORGANIZATION ( #86, #180 ) ;
#100 = PERSON_AND_ORGANIZATION_ROLE ( 'creator' ) ;
#101 = ADVANCED_BREP_SHAPE_REPRESENTATION ( '55420', ( #81, #84, #191 ), #65 ) ;
#102 = AXIS2_PLACEMENT_3D ( 'NONE', #22, #175, #113 ) ;
#103 = COORDINATED_UNIVERSAL_TIME_OFFSET ( 1, 0, .AHEAD. ) ;
#104 = ADVANCED_FACE ( 'NONE', ( #58, #126 ), #21, .T. ) ;
#105 = APPROVAL_PERSON_ORGANIZATION ( #34, #35, #150 ) ;
#106 = EDGE_LOOP ( 'NONE', ( #1 ) ) ;
#107 = CARTESIAN_POINT ( 'NONE',  ( 4.189777606611760026E-14, -1.469576158976823947E-15, 12.00000000000000000 ) ) ;
#108 = CIRCLE ( 'NONE', #125, 0.8000000000000009326 ) ;
#109 = EDGE_CURVE ( 'NONE', #158, #158, #185, .T. ) ;
#110 = FACE_OUTER_BOUND ( 'NONE', #124, .T. ) ;
#111 = CARTESIAN_POINT ( 'NONE',  ( 1.762230656407592243E-15, -6.181073084136730639E-17, 0.5047229199831522184 ) ) ;
#112 = EDGE_CURVE ( 'NONE', #127, #127, #128, .T. ) ;
#113 = DIRECTION ( 'NONE',  ( 0.0000000000000000000, 1.000000000000000000, 0.0000000000000000000 ) ) ;
#114 = CC_DESIGN_APPROVAL ( #176, ( #220 ) ) ;
#115 = CARTESIAN_POINT ( 'NONE',  ( 1.762230656407592243E-15, -6.181073084136730639E-17, 0.5047229199831522184 ) ) ;
#116 = CARTESIAN_POINT ( 'NONE',  ( 4.189777606611760026E-14, 6.298991087179737088E-33, 12.00000000000000000 ) ) ;
#117 = CC_DESIGN_DATE_AND_TIME_ASSIGNMENT ( #15, #181, ( #220 ) ) ;
#118 = DIRECTION ( 'NONE',  ( -4.275831445896958607E-31, -1.000000000000000000, -1.224646799147353207E-16 ) ) ;
#119 = DATE_AND_TIME ( #48, #2 ) ;
#120 = DIRECTION ( 'NONE',  ( 0.0000000000000000000, 0.0000000000000000000, 1.000000000000000000 ) ) ;
#121 = PERSON_AND_ORGANIZATION_ROLE ( 'creator' ) ;
#122 = ORIENTED_EDGE ( 'NONE', *, *, #92, .T. ) ;
#123 = EDGE_LOOP ( 'NONE', ( #90 ) ) ;
#124 = EDGE_LOOP ( 'NONE', ( #122 ) ) ;
#125 = AXIS2_PLACEMENT_3D ( 'NONE', #74, #8, #93 ) ;
#126 = FACE_OUTER_BOUND ( 'NONE', #169, .T. ) ;
#127 = VERTEX_POINT ( 'NONE', #194 ) ;
#128 = CIRCLE ( 'NONE', #163, 0.8399999999999935296 ) ;
#129 = DIRECTION ( 'NONE',  ( 4.275831445896958607E-31, 1.000000000000000000, 1.224646799147353207E-16 ) ) ;
#130 = CARTESIAN_POINT ( 'NONE',  ( 4.286536375772641427E-14, 0.9999999999999954481, 12.27712812921102881 ) ) ;
#131 = PERSON_AND_ORGANIZATION ( #86, #180 ) ;
#132 = COORDINATED_UNIVERSAL_TIME_OFFSET ( 1, 0, .AHEAD. ) ;
#133 = AXIS2_PLACEMENT_3D ( 'NONE', #215, #96, #118 ) ;
#134 = SECURITY_CLASSIFICATION_LEVEL ( 'unclassified' ) ;
#135 = DIRECTION ( 'NONE',  ( 4.275831445896957731E-31, 1.000000000000000000, 1.224646799147353454E-16 ) ) ;
#136 = LOCAL_TIME ( 7, 15, 42.00000000000000000, #103 ) ;
#137 = DIRECTION ( 'NONE',  ( -3.491481338843133355E-15, 1.224646799147353207E-16, -1.000000000000000000 ) ) ;
#138 = ORIENTED_EDGE ( 'NONE', *, *, #195, .F. ) ;
#139 = PRODUCT_RELATED_PRODUCT_CATEGORY ( 'detail', '', ( #11 ) ) ;
#140 = ORIENTED_EDGE ( 'NONE', *, *, #109, .F. ) ;
#141 = ADVANCED_FACE ( 'NONE', ( #162, #94 ), #89, .T. ) ;
#142 = CARTESIAN_POINT ( 'NONE',  ( 4.189777606611760026E-14, 0.8399999999999926414, 12.00000000000000000 ) ) ;
#143 = DIRECTION ( 'NONE',  ( -3.491481338843133355E-15, 1.224646799147353207E-16, -1.000000000000000000 ) ) ;
#144 = DIRECTION ( 'NONE',  ( 0.0000000000000000000, 1.000000000000000000, 0.0000000000000000000 ) ) ;
#145 = COORDINATED_UNIVERSAL_TIME_OFFSET ( 1, 0, .AHEAD. ) ;
#146 = APPROVAL_ROLE ( '' ) ;
#147 = ADVANCED_FACE ( 'NONE', ( #75 ), #193, .F. ) ;
#148 = CC_DESIGN_SECURITY_CLASSIFICATION ( #166, ( #187 ) ) ;
#149 = DATE_AND_TIME ( #152, #136 ) ;
#150 = APPROVAL_ROLE ( '' ) ;
#151 = CC_DESIGN_PERSON_AND_ORGANIZATION_ASSIGNMENT ( #131, #63, ( #11 ) ) ;
#152 = CALENDAR_DATE ( 2021, 8, 10 ) ;
#153 = CIRCLE ( 'NONE', #19, 0.8399999999999941958 ) ;
#154 = CYLINDRICAL_SURFACE ( 'NONE', #77, 0.9999999999999988898 ) ;
#155 = EDGE_LOOP ( 'NONE', ( #18 ) ) ;
#156 = EDGE_LOOP ( 'NONE', ( #171 ) ) ;
#157 = ORIENTED_EDGE ( 'NONE', *, *, #195, .T. ) ;
#158 = VERTEX_POINT ( 'NONE', #130 ) ;
#159 = DIRECTION ( 'NONE',  ( -3.491481338843133355E-15, 1.224646799147353207E-16, -1.000000000000000000 ) ) ;
#160 = AXIS2_PLACEMENT_3D ( 'NONE', #116, #9, #61 ) ;
#161 = CARTESIAN_POINT ( 'NONE',  ( 1.326762908760390423E-13, -4.653657836759941941E-15, 38.00000000000000000 ) ) ;
#162 = FACE_OUTER_BOUND ( 'NONE', #123, .T. ) ;
#163 = AXIS2_PLACEMENT_3D ( 'NONE', #111, #198, #177 ) ;
#164 = APPROVAL_STATUS ( 'not_yet_approved' ) ;
#165 = PERSON_AND_ORGANIZATION ( #86, #180 ) ;
#166 = SECURITY_CLASSIFICATION ( '', '', #134 ) ;
#167 = PERSON_AND_ORGANIZATION ( #86, #180 ) ;
#168 = ADVANCED_FACE ( 'NONE', ( #7 ), #217, .F. ) ;
#169 = EDGE_LOOP ( 'NONE', ( #207 ) ) ;
#170 = CC_DESIGN_PERSON_AND_ORGANIZATION_ASSIGNMENT ( #99, #221, ( #187 ) ) ;
#171 = ORIENTED_EDGE ( 'NONE', *, *, #112, .T. ) ;
#172 = CIRCLE ( 'NONE', #51, 0.8399999999999941958 ) ;
#173 = FACE_BOUND ( 'NONE', #155, .T. ) ;
#174 = APPLICATION_CONTEXT ( 'configuration controlled 3d designs of mechanical parts and assemblies' ) ;
#175 = DIRECTION ( 'NONE',  ( -3.491481338843133355E-15, 1.224646799147353207E-16, -1.000000000000000000 ) ) ;
#176 = APPROVAL ( #13, 'UNSPECIFIED' ) ;
#177 = DIRECTION ( 'NONE',  ( 4.585547486636311332E-31, 1.000000000000000000, 1.290716872006562888E-16 ) ) ;
#178 =( NAMED_UNIT ( * ) PLANE_ANGLE_UNIT ( ) SI_UNIT ( $, .RADIAN. ) );
#179 = PERSON_AND_ORGANIZATION ( #86, #180 ) ;
#180 = ORGANIZATION ( 'UNSPECIFIED', 'UNSPECIFIED', '' ) ;
#181 = DATE_TIME_ROLE ( 'creation_date' ) ;
#182 = APPROVAL_DATE_TIME ( #119, #4 ) ;
#183 = APPROVAL_ROLE ( '' ) ;
#184 = APPLICATION_CONTEXT ( 'configuration controlled 3d designs of mechanical parts and assemblies' ) ;
#185 = CIRCLE ( 'NONE', #102, 0.9999999999999970024 ) ;
#186 = PERSON_AND_ORGANIZATION_ROLE ( 'classification_officer' ) ;
#187 = PRODUCT_DEFINITION_FORMATION_WITH_SPECIFIED_SOURCE ( 'ANY', '', #11, .NOT_KNOWN. ) ;
#188 = ORIENTED_EDGE ( 'NONE', *, *, #112, .F. ) ;
#189 = EDGE_LOOP ( 'NONE', ( #140 ) ) ;
#190 = DIRECTION ( 'NONE',  ( 0.0000000000000000000, 1.000000000000000000, 0.0000000000000000000 ) ) ;
#191 = AXIS2_PLACEMENT_3D ( 'NONE', #206, #120, #52 ) ;
#192 = ORIENTED_EDGE ( 'NONE', *, *, #32, .T. ) ;
#193 = PLANE ( 'NONE',  #204 ) ;
#194 = CARTESIAN_POINT ( 'NONE',  ( 1.762230656407592638E-15, 0.8399999999999934186, 0.5047229199831523294 ) ) ;
#195 = EDGE_CURVE ( 'NONE', #42, #42, #108, .T. ) ;
#196 = CONICAL_SURFACE ( 'NONE', #36, 0.9999999999999970024, 0.5235987755982933756 ) ;
#197 = DIRECTION ( 'NONE',  ( -4.585547486636311332E-31, -1.000000000000000000, -1.290716872006562888E-16 ) ) ;
#198 = DIRECTION ( 'NONE',  ( -3.491481338843133355E-15, 1.224646799147353207E-16, -1.000000000000000000 ) ) ;
#199 = DATE_AND_TIME ( #30, #208 ) ;
#200 = LOCAL_TIME ( 7, 15, 42.00000000000000000, #50 ) ;
#201 = APPROVAL_STATUS ( 'not_yet_approved' ) ;
#202 = APPLICATION_PROTOCOL_DEFINITION ( 'international standard', 'config_control_design', 1994, #174 ) ;
#203 = CALENDAR_DATE ( 2021, 8, 10 ) ;
#204 = AXIS2_PLACEMENT_3D ( 'NONE', #46, #159, #27 ) ;
#205 = CC_DESIGN_PERSON_AND_ORGANIZATION_ASSIGNMENT ( #67, #100, ( #187 ) ) ;
#206 = CARTESIAN_POINT ( 'NONE',  ( 0.0000000000000000000, 0.0000000000000000000, 0.0000000000000000000 ) ) ;
#207 = ORIENTED_EDGE ( 'NONE', *, *, #14, .T. ) ;
#208 = LOCAL_TIME ( 7, 15, 42.00000000000000000, #88 ) ;
#209 = DIRECTION ( 'NONE',  ( 0.0000000000000000000, 1.000000000000000000, 0.0000000000000000000 ) ) ;
#210 = EDGE_LOOP ( 'NONE', ( #39 ) ) ;
#211 = FACE_OUTER_BOUND ( 'NONE', #106, .T. ) ;
#212 = AXIS2_PLACEMENT_3D ( 'NONE', #76, #143, #216 ) ;
#213 = DIRECTION ( 'NONE',  ( 3.491481338843133355E-15, -1.224646799147353207E-16, 1.000000000000000000 ) ) ;
#214 = CARTESIAN_POINT ( 'NONE',  ( 4.189777606611760026E-14, 0.8399999999999926414, 12.00000000000000000 ) ) ;
#215 = CARTESIAN_POINT ( 'NONE',  ( 4.189777606611760026E-14, 6.298991087179737088E-33, 12.00000000000000000 ) ) ;
#216 = DIRECTION ( 'NONE',  ( 0.0000000000000000000, 1.000000000000000000, 0.0000000000000000000 ) ) ;
#217 = PLANE ( 'NONE',  #160 ) ;
#218 = CALENDAR_DATE ( 2021, 8, 10 ) ;
#219 = LOCAL_TIME ( 7, 15, 42.00000000000000000, #145 ) ;
#220 = PRODUCT_DEFINITION ( 'UNKNOWN', '', #187, #45 ) ;
#221 = PERSON_AND_ORGANIZATION_ROLE ( 'design_supplier' ) ;
#222 = AXIS2_PLACEMENT_3D ( 'NONE', #97, #28, #129 ) ;
#223 = CARTESIAN_POINT ( 'NONE',  ( 0.0000000000000000000, 0.0000000000000000000, 0.0000000000000000000 ) ) ;
ENDSEC;
END-ISO-10303-21;
