ISO-10303-21;
HEADER;
FILE_DESCRIPTION (( 'STEP AP203' ),
    '1' );
FILE_NAME ('55419.step',
    '2021-10-08T05:15:41',
    ( '' ),
    ( '' ),
    'SwSTEP 2.0',
    'SolidWorks 2019',
    '' );
FILE_SCHEMA (( 'CONFIG_CONTROL_DESIGN' ));
ENDSEC;

DATA;
#1 = PRODUCT_DEFINITION ( 'UNKNOWN', '', #122, #94 ) ;
#2 = CIRCLE ( 'NONE', #65, 0.8000000000000009326 ) ;
#3 = APPLICATION_CONTEXT ( 'configuration controlled 3d designs of mechanical parts and assemblies' ) ;
#4 = AXIS2_PLACEMENT_3D ( 'NONE', #93, #178, #78 ) ;
#5 = ADVANCED_FACE ( 'NONE', ( #221 ), #35, .F. ) ;
#6 = DIRECTION ( 'NONE',  ( -3.491481338843133355E-15, 1.224646799147353207E-16, -1.000000000000000000 ) ) ;
#7 = DIRECTION ( 'NONE',  ( -3.491481338843133355E-15, 1.224646799147353207E-16, -1.000000000000000000 ) ) ;
#8 = LOCAL_TIME ( 7, 15, 41.00000000000000000, #87 ) ;
#9 = DIRECTION ( 'NONE',  ( 0.0000000000000000000, 1.000000000000000000, 0.0000000000000000000 ) ) ;
#10 = FACE_OUTER_BOUND ( 'NONE', #34, .T. ) ;
#11 = ADVANCED_FACE ( 'NONE', ( #145, #110 ), #90, .T. ) ;
#12 = CARTESIAN_POINT ( 'NONE',  ( 1.751741188214689369E-15, 0.8349999999999934142, 0.5017186168880143349 ) ) ;
#13 = APPROVAL_PERSON_ORGANIZATION ( #130, #152, #88 ) ;
#14 = APPROVAL_STATUS ( 'not_yet_approved' ) ;
#15 = APPROVAL_ROLE ( '' ) ;
#16 = PRODUCT_DEFINITION_SHAPE ( 'NONE', 'NONE',  #1 ) ;
#17 =( LENGTH_UNIT ( ) NAMED_UNIT ( * ) SI_UNIT ( .MILLI., .METRE. ) );
#18 = CC_DESIGN_PERSON_AND_ORGANIZATION_ASSIGNMENT ( #186, #223, ( #122 ) ) ;
#19 = EDGE_LOOP ( 'NONE', ( #200 ) ) ;
#20 = APPROVAL_PERSON_ORGANIZATION ( #72, #202, #15 ) ;
#21 = ORIENTED_EDGE ( 'NONE', *, *, #91, .T. ) ;
#22 = DATE_TIME_ROLE ( 'classification_date' ) ;
#23 = FACE_OUTER_BOUND ( 'NONE', #51, .T. ) ;
#24 = AXIS2_PLACEMENT_3D ( 'NONE', #63, #46, #207 ) ;
#25 = CARTESIAN_POINT ( 'NONE',  ( 4.289560087308918931E-14, -1.504575141854746660E-15, 12.28578838324887279 ) ) ;
#26 = DIRECTION ( 'NONE',  ( 0.0000000000000000000, 1.000000000000000000, 0.0000000000000000000 ) ) ;
#27 = AXIS2_PLACEMENT_3D ( 'NONE', #99, #177, #9 ) ;
#28 = CARTESIAN_POINT ( 'NONE',  ( 1.751741188214688974E-15, -6.144280982445439365E-17, 0.5017186168880142239 ) ) ;
#29 = APPROVAL_DATE_TIME ( #159, #47 ) ;
#30 =( NAMED_UNIT ( * ) SI_UNIT ( $, .STERADIAN. ) SOLID_ANGLE_UNIT ( ) );
#31 = CLOSED_SHELL ( 'NONE', ( #163, #158, #162 ) ) ;
#32 = DATE_AND_TIME ( #54, #77 ) ;
#33 = EDGE_LOOP ( 'NONE', ( #89 ) ) ;
#34 = EDGE_LOOP ( 'NONE', ( #67 ) ) ;
#35 = PLANE ( 'NONE',  #56 ) ;
#36 = PERSON_AND_ORGANIZATION ( #135, #210 ) ;
#37 = CARTESIAN_POINT ( 'NONE',  ( 1.326762908760390423E-13, -4.653657836759941941E-15, 38.00000000000000000 ) ) ;
#38 = CIRCLE ( 'NONE', #24, 1.000000000000000888 ) ;
#39 = CC_DESIGN_PERSON_AND_ORGANIZATION_ASSIGNMENT ( #36, #106, ( #122 ) ) ;
#40 = ADVANCED_BREP_SHAPE_REPRESENTATION ( '55419', ( #218, #156, #216 ), #199 ) ;
#41 = EDGE_CURVE ( 'NONE', #141, #141, #38, .T. ) ;
#42 = ORIENTED_EDGE ( 'NONE', *, *, #116, .F. ) ;
#43 = EDGE_LOOP ( 'NONE', ( #53 ) ) ;
#44 = DIRECTION ( 'NONE',  ( -3.491481338843133355E-15, 1.224646799147353207E-16, -1.000000000000000000 ) ) ;
#45 = FACE_OUTER_BOUND ( 'NONE', #208, .T. ) ;
#46 = DIRECTION ( 'NONE',  ( -3.491481338843133355E-15, 1.224646799147353207E-16, -1.000000000000000000 ) ) ;
#47 = APPROVAL ( #14, 'UNSPECIFIED' ) ;
#48 = CARTESIAN_POINT ( 'NONE',  ( 1.326762908760390423E-13, -4.653657836759941941E-15, 38.00000000000000000 ) ) ;
#49 = DIRECTION ( 'NONE',  ( 4.613005854819762382E-31, 1.000000000000000000, 1.298445715551512390E-16 ) ) ;
#50 = CC_DESIGN_APPROVAL ( #202, ( #122 ) ) ;
#51 = EDGE_LOOP ( 'NONE', ( #42 ) ) ;
#52 = COORDINATED_UNIVERSAL_TIME_OFFSET ( 1, 0, .AHEAD. ) ;
#53 = ORIENTED_EDGE ( 'NONE', *, *, #183, .F. ) ;
#54 = CALENDAR_DATE ( 2021, 8, 10 ) ;
#55 = CC_DESIGN_PERSON_AND_ORGANIZATION_ASSIGNMENT ( #138, #84, ( #1 ) ) ;
#56 = AXIS2_PLACEMENT_3D ( 'NONE', #125, #143, #74 ) ;
#57 = COORDINATED_UNIVERSAL_TIME_OFFSET ( 1, 0, .AHEAD. ) ;
#58 = VERTEX_POINT ( 'NONE', #219 ) ;
#59 = COORDINATED_UNIVERSAL_TIME_OFFSET ( 1, 0, .AHEAD. ) ;
#60 = CC_DESIGN_DATE_AND_TIME_ASSIGNMENT ( #32, #104, ( #1 ) ) ;
#61 = CONICAL_SURFACE ( 'NONE', #190, 0.9999999999999970024, 0.5235987755982965952 ) ;
#62 = FACE_OUTER_BOUND ( 'NONE', #73, .T. ) ;
#63 = CARTESIAN_POINT ( 'NONE',  ( 1.319779946082704535E-13, -4.629164900776995227E-15, 37.79999999999999716 ) ) ;
#64 = CARTESIAN_POINT ( 'NONE',  ( 4.189777606611760026E-14, 6.261497092613184900E-33, 12.00000000000000000 ) ) ;
#65 = AXIS2_PLACEMENT_3D ( 'NONE', #37, #101, #153 ) ;
#66 = EDGE_LOOP ( 'NONE', ( #215 ) ) ;
#67 = ORIENTED_EDGE ( 'NONE', *, *, #91, .F. ) ;
#68 = DIRECTION ( 'NONE',  ( 0.0000000000000000000, 1.000000000000000000, 0.0000000000000000000 ) ) ;
#69 = CC_DESIGN_PERSON_AND_ORGANIZATION_ASSIGNMENT ( #157, #197, ( #165 ) ) ;
#70 = CARTESIAN_POINT ( 'NONE',  ( 4.189777606611760026E-14, 0.8349999999999919709, 12.00000000000000000 ) ) ;
#71 = AXIS2_PLACEMENT_3D ( 'NONE', #193, #191, #114 ) ;
#72 = PERSON_AND_ORGANIZATION ( #135, #210 ) ;
#73 = EDGE_LOOP ( 'NONE', ( #206 ) ) ;
#74 = DIRECTION ( 'NONE',  ( 4.275831445896958607E-31, 1.000000000000000000, 1.224646799147353207E-16 ) ) ;
#75 = SECURITY_CLASSIFICATION_LEVEL ( 'unclassified' ) ;
#76 = APPROVAL_STATUS ( 'not_yet_approved' ) ;
#77 = LOCAL_TIME ( 7, 15, 41.00000000000000000, #198 ) ;
#78 = DIRECTION ( 'NONE',  ( -4.275831445896958607E-31, -1.000000000000000000, -1.224646799147353207E-16 ) ) ;
#79 = CARTESIAN_POINT ( 'NONE',  ( 4.189777606611760026E-14, -1.469576158976823947E-15, 12.00000000000000000 ) ) ;
#80 = AXIS2_PLACEMENT_3D ( 'NONE', #174, #7, #164 ) ;
#81 = DIRECTION ( 'NONE',  ( -3.491481338843133355E-15, 1.224646799147353207E-16, -1.000000000000000000 ) ) ;
#82 = MECHANICAL_CONTEXT ( 'NONE', #3, 'mechanical' ) ;
#83 = CC_DESIGN_DATE_AND_TIME_ASSIGNMENT ( #142, #22, ( #171 ) ) ;
#84 = PERSON_AND_ORGANIZATION_ROLE ( 'creator' ) ;
#85 = CARTESIAN_POINT ( 'NONE',  ( 4.289560087308918931E-14, 0.9999999999999954481, 12.28578838324887279 ) ) ;
#86 = CLOSED_SHELL ( 'NONE', ( #205, #102, #11, #127, #5 ) ) ;
#87 = COORDINATED_UNIVERSAL_TIME_OFFSET ( 1, 0, .AHEAD. ) ;
#88 = APPROVAL_ROLE ( '' ) ;
#89 = ORIENTED_EDGE ( 'NONE', *, *, #183, .T. ) ;
#90 = CYLINDRICAL_SURFACE ( 'NONE', #192, 0.9999999999999988898 ) ;
#91 = EDGE_CURVE ( 'NONE', #201, #201, #149, .T. ) ;
#92 = AXIS2_PLACEMENT_3D ( 'NONE', #64, #151, #134 ) ;
#93 = CARTESIAN_POINT ( 'NONE',  ( 4.189777606611760026E-14, 6.261497092613184900E-33, 12.00000000000000000 ) ) ;
#94 = DESIGN_CONTEXT ( 'detailed design', #147, 'design' ) ;
#95 = DIRECTION ( 'NONE',  ( 0.0000000000000000000, 1.000000000000000000, 0.0000000000000000000 ) ) ;
#96 = DIRECTION ( 'NONE',  ( 3.491481338843133355E-15, -1.224646799147353207E-16, 1.000000000000000000 ) ) ;
#97 = EDGE_LOOP ( 'NONE', ( #172 ) ) ;
#98 = PRODUCT_RELATED_PRODUCT_CATEGORY ( 'detail', '', ( #165 ) ) ;
#99 = CARTESIAN_POINT ( 'NONE',  ( 4.189777606611760026E-14, -1.469576158976823947E-15, 12.00000000000000000 ) ) ;
#100 = FACE_BOUND ( 'NONE', #43, .T. ) ;
#101 = DIRECTION ( 'NONE',  ( -3.491481338843133355E-15, 1.224646799147353207E-16, -1.000000000000000000 ) ) ;
#102 = ADVANCED_FACE ( 'NONE', ( #100, #62 ), #61, .T. ) ;
#103 = CONICAL_SURFACE ( 'NONE', #71, 0.8349999999999935252, 1.029744258676649871 ) ;
#104 = DATE_TIME_ROLE ( 'creation_date' ) ;
#105 = ORIENTED_EDGE ( 'NONE', *, *, #41, .T. ) ;
#106 = PERSON_AND_ORGANIZATION_ROLE ( 'creator' ) ;
#107 = CC_DESIGN_SECURITY_CLASSIFICATION ( #171, ( #122 ) ) ;
#108 = PERSON_AND_ORGANIZATION ( #135, #210 ) ;
#109 = AXIS2_PLACEMENT_3D ( 'NONE', #79, #6, #26 ) ;
#110 = FACE_OUTER_BOUND ( 'NONE', #170, .T. ) ;
#111 = PERSON_AND_ORGANIZATION_ROLE ( 'classification_officer' ) ;
#112 = CYLINDRICAL_SURFACE ( 'NONE', #80, 0.8349999999999935252 ) ;
#113 = LOCAL_TIME ( 7, 15, 41.00000000000000000, #59 ) ;
#114 = DIRECTION ( 'NONE',  ( -4.613005854819762382E-31, -1.000000000000000000, -1.298445715551512390E-16 ) ) ;
#115 = DIRECTION ( 'NONE',  ( 0.0000000000000000000, -1.000000000000000000, 0.0000000000000000000 ) ) ;
#116 = EDGE_CURVE ( 'NONE', #58, #58, #196, .T. ) ;
#117 = DIRECTION ( 'NONE',  ( -3.491481338843133355E-15, 1.224646799147353207E-16, -1.000000000000000000 ) ) ;
#118 = AXIS2_PLACEMENT_3D ( 'NONE', #28, #195, #49 ) ;
#119 = CALENDAR_DATE ( 2021, 8, 10 ) ;
#120 = CC_DESIGN_PERSON_AND_ORGANIZATION_ASSIGNMENT ( #108, #111, ( #171 ) ) ;
#121 = APPLICATION_PROTOCOL_DEFINITION ( 'international standard', 'config_control_design', 1994, #147 ) ;
#122 = PRODUCT_DEFINITION_FORMATION_WITH_SPECIFIED_SOURCE ( 'ANY', '', #165, .NOT_KNOWN. ) ;
#123 = DATE_AND_TIME ( #220, #146 ) ;
#124 = VERTEX_POINT ( 'NONE', #85 ) ;
#125 = CARTESIAN_POINT ( 'NONE',  ( 1.326762908760390423E-13, 5.999039130647367482E-33, 38.00000000000000000 ) ) ;
#126 = CALENDAR_DATE ( 2021, 8, 10 ) ;
#127 = ADVANCED_FACE ( 'NONE', ( #194, #213 ), #222, .T. ) ;
#128 = SHAPE_DEFINITION_REPRESENTATION ( #16, #40 ) ;
#129 = DIRECTION ( 'NONE',  ( 4.275831445896957731E-31, 1.000000000000000000, 1.224646799147353454E-16 ) ) ;
#130 = PERSON_AND_ORGANIZATION ( #135, #210 ) ;
#131 = EDGE_LOOP ( 'NONE', ( #181 ) ) ;
#132 = CARTESIAN_POINT ( 'NONE',  ( 4.289560087308918931E-14, -1.504575141854746660E-15, 12.28578838324887279 ) ) ;
#133 = FACE_OUTER_BOUND ( 'NONE', #203, .T. ) ;
#134 = DIRECTION ( 'NONE',  ( -4.275831445896958607E-31, -1.000000000000000000, -1.224646799147353207E-16 ) ) ;
#135 = PERSON ( 'UNSPECIFIED', 'UNSPECIFIED', 'UNSPECIFIED', ('UNSPECIFIED'), ('UNSPECIFIED'), ('UNSPECIFIED') ) ;
#136 = DIRECTION ( 'NONE',  ( 0.0000000000000000000, 0.0000000000000000000, 1.000000000000000000 ) ) ;
#137 = CIRCLE ( 'NONE', #27, 0.8349999999999935252 ) ;
#138 = PERSON_AND_ORGANIZATION ( #135, #210 ) ;
#139 = DIRECTION ( 'NONE',  ( 1.000000000000000000, 0.0000000000000000000, 0.0000000000000000000 ) ) ;
#140 = VERTEX_POINT ( 'NONE', #70 ) ;
#141 = VERTEX_POINT ( 'NONE', #169 ) ;
#142 = DATE_AND_TIME ( #189, #113 ) ;
#143 = DIRECTION ( 'NONE',  ( -3.491481338843133355E-15, 1.224646799147353207E-16, -1.000000000000000000 ) ) ;
#144 = CIRCLE ( 'NONE', #184, 0.9999999999999970024 ) ;
#145 = FACE_OUTER_BOUND ( 'NONE', #97, .T. ) ;
#146 = LOCAL_TIME ( 7, 15, 41.00000000000000000, #57 ) ;
#147 = APPLICATION_CONTEXT ( 'configuration controlled 3d designs of mechanical parts and assemblies' ) ;
#148 = FACE_OUTER_BOUND ( 'NONE', #33, .T. ) ;
#149 = CIRCLE ( 'NONE', #118, 0.8349999999999935252 ) ;
#150 = PLANE ( 'NONE',  #4 ) ;
#151 = DIRECTION ( 'NONE',  ( 3.491481338843133355E-15, -1.224646799147353207E-16, 1.000000000000000000 ) ) ;
#152 = APPROVAL ( #76, 'UNSPECIFIED' ) ;
#153 = DIRECTION ( 'NONE',  ( 0.0000000000000000000, 1.000000000000000000, 0.0000000000000000000 ) ) ;
#154 = APPROVAL_PERSON_ORGANIZATION ( #155, #47, #217 ) ;
#155 = PERSON_AND_ORGANIZATION ( #135, #210 ) ;
#156 = MANIFOLD_SOLID_BREP ( 'Corps-Déplacer/Copier1[2]', #31 ) ;
#157 = PERSON_AND_ORGANIZATION ( #135, #210 ) ;
#158 = ADVANCED_FACE ( 'NONE', ( #10, #45 ), #112, .T. ) ;
#159 = DATE_AND_TIME ( #119, #176 ) ;
#160 = DATE_AND_TIME ( #126, #8 ) ;
#161 = APPROVAL_DATE_TIME ( #160, #152 ) ;
#162 = ADVANCED_FACE ( 'NONE', ( #23 ), #150, .T. ) ;
#163 = ADVANCED_FACE ( 'NONE', ( #133 ), #103, .T. ) ;
#164 = DIRECTION ( 'NONE',  ( 4.275831445896958607E-31, 1.000000000000000000, 1.224646799147353207E-16 ) ) ;
#165 = PRODUCT ( '55419', '55419', '', ( #82 ) ) ;
#166 = VERTEX_POINT ( 'NONE', #180 ) ;
#167 =( NAMED_UNIT ( * ) PLANE_ANGLE_UNIT ( ) SI_UNIT ( $, .RADIAN. ) );
#168 = APPROVAL_STATUS ( 'not_yet_approved' ) ;
#169 = CARTESIAN_POINT ( 'NONE',  ( 1.319779946082704535E-13, 0.9999999999999963363, 37.79999999999999716 ) ) ;
#170 = EDGE_LOOP ( 'NONE', ( #105 ) ) ;
#171 = SECURITY_CLASSIFICATION ( '', '', #75 ) ;
#172 = ORIENTED_EDGE ( 'NONE', *, *, #188, .F. ) ;
#173 = AXIS2_PLACEMENT_3D ( 'NONE', #48, #117, #68 ) ;
#174 = CARTESIAN_POINT ( 'NONE',  ( 0.0000000000000000000, 0.0000000000000000000, 0.0000000000000000000 ) ) ;
#175 = UNCERTAINTY_MEASURE_WITH_UNIT (LENGTH_MEASURE( 1.000000000000000082E-05 ), #17, 'distance_accuracy_value', 'NONE');
#176 = LOCAL_TIME ( 7, 15, 41.00000000000000000, #52 ) ;
#177 = DIRECTION ( 'NONE',  ( -3.491481338843133355E-15, 1.224646799147353207E-16, -1.000000000000000000 ) ) ;
#178 = DIRECTION ( 'NONE',  ( 3.491481338843133355E-15, -1.224646799147353207E-16, 1.000000000000000000 ) ) ;
#179 = APPLICATION_PROTOCOL_DEFINITION ( 'international standard', 'config_control_design', 1994, #3 ) ;
#180 = CARTESIAN_POINT ( 'NONE',  ( 1.326762908760390423E-13, 0.7999999999999962697, 38.00000000000000000 ) ) ;
#181 = ORIENTED_EDGE ( 'NONE', *, *, #212, .T. ) ;
#182 = APPROVAL_DATE_TIME ( #123, #202 ) ;
#183 = EDGE_CURVE ( 'NONE', #140, #140, #137, .T. ) ;
#184 = AXIS2_PLACEMENT_3D ( 'NONE', #25, #81, #95 ) ;
#185 = CC_DESIGN_APPROVAL ( #152, ( #171 ) ) ;
#186 = PERSON_AND_ORGANIZATION ( #135, #210 ) ;
#187 = CARTESIAN_POINT ( 'NONE',  ( 0.0000000000000000000, 0.0000000000000000000, 0.0000000000000000000 ) ) ;
#188 = EDGE_CURVE ( 'NONE', #124, #124, #144, .T. ) ;
#189 = CALENDAR_DATE ( 2021, 8, 10 ) ;
#190 = AXIS2_PLACEMENT_3D ( 'NONE', #132, #96, #115 ) ;
#191 = DIRECTION ( 'NONE',  ( 3.491481338843133355E-15, -1.224646799147353207E-16, 1.000000000000000000 ) ) ;
#192 = AXIS2_PLACEMENT_3D ( 'NONE', #187, #44, #129 ) ;
#193 = CARTESIAN_POINT ( 'NONE',  ( 1.751741188214688974E-15, -6.144280982445439365E-17, 0.5017186168880142239 ) ) ;
#194 = FACE_OUTER_BOUND ( 'NONE', #19, .T. ) ;
#195 = DIRECTION ( 'NONE',  ( -3.491481338843133355E-15, 1.224646799147353207E-16, -1.000000000000000000 ) ) ;
#196 = CIRCLE ( 'NONE', #109, 0.8349999999999935252 ) ;
#197 = PERSON_AND_ORGANIZATION_ROLE ( 'design_owner' ) ;
#198 = COORDINATED_UNIVERSAL_TIME_OFFSET ( 1, 0, .AHEAD. ) ;
#199 =( GEOMETRIC_REPRESENTATION_CONTEXT ( 3 ) GLOBAL_UNCERTAINTY_ASSIGNED_CONTEXT ( ( #175 ) ) GLOBAL_UNIT_ASSIGNED_CONTEXT ( ( #17, #167, #30 ) ) REPRESENTATION_CONTEXT ( 'NONE', 'WORKASPACE' ) );
#200 = ORIENTED_EDGE ( 'NONE', *, *, #41, .F. ) ;
#201 = VERTEX_POINT ( 'NONE', #12 ) ;
#202 = APPROVAL ( #168, 'UNSPECIFIED' ) ;
#203 = EDGE_LOOP ( 'NONE', ( #21 ) ) ;
#204 = CC_DESIGN_APPROVAL ( #47, ( #1 ) ) ;
#205 = ADVANCED_FACE ( 'NONE', ( #148 ), #209, .F. ) ;
#206 = ORIENTED_EDGE ( 'NONE', *, *, #188, .T. ) ;
#207 = DIRECTION ( 'NONE',  ( 0.0000000000000000000, 1.000000000000000000, 0.0000000000000000000 ) ) ;
#208 = EDGE_LOOP ( 'NONE', ( #211 ) ) ;
#209 = PLANE ( 'NONE',  #92 ) ;
#210 = ORGANIZATION ( 'UNSPECIFIED', 'UNSPECIFIED', '' ) ;
#211 = ORIENTED_EDGE ( 'NONE', *, *, #116, .T. ) ;
#212 = EDGE_CURVE ( 'NONE', #166, #166, #2, .T. ) ;
#213 = FACE_BOUND ( 'NONE', #131, .T. ) ;
#214 = CARTESIAN_POINT ( 'NONE',  ( 0.0000000000000000000, 0.0000000000000000000, 0.0000000000000000000 ) ) ;
#215 = ORIENTED_EDGE ( 'NONE', *, *, #212, .F. ) ;
#216 = AXIS2_PLACEMENT_3D ( 'NONE', #214, #136, #139 ) ;
#217 = APPROVAL_ROLE ( '' ) ;
#218 = MANIFOLD_SOLID_BREP ( 'Corps-Déplacer/Copier1[1]', #86 ) ;
#219 = CARTESIAN_POINT ( 'NONE',  ( 4.189777606611760026E-14, 0.8349999999999919709, 12.00000000000000000 ) ) ;
#220 = CALENDAR_DATE ( 2021, 8, 10 ) ;
#221 = FACE_OUTER_BOUND ( 'NONE', #66, .T. ) ;
#222 = CONICAL_SURFACE ( 'NONE', #173, 0.8000000000000009326, 0.7853981633974512766 ) ;
#223 = PERSON_AND_ORGANIZATION_ROLE ( 'design_supplier' ) ;
ENDSEC;
END-ISO-10303-21;
