ISO-10303-21;
HEADER;
FILE_DESCRIPTION (( 'STEP AP203' ),
    '1' );
FILE_NAME ('55418.step',
    '2021-10-08T05:15:40',
    ( '' ),
    ( '' ),
    'SwSTEP 2.0',
    'SolidWorks 2019',
    '' );
FILE_SCHEMA (( 'CONFIG_CONTROL_DESIGN' ));
ENDSEC;

DATA;
#1 = PRODUCT_DEFINITION_SHAPE ( 'NONE', 'NONE',  #90 ) ;
#2 = EDGE_LOOP ( 'NONE', ( #4 ) ) ;
#3 = EDGE_CURVE ( 'NONE', #164, #164, #67, .T. ) ;
#4 = ORIENTED_EDGE ( 'NONE', *, *, #139, .F. ) ;
#5 = AXIS2_PLACEMENT_3D ( 'NONE', #186, #150, #25 ) ;
#6 = DIRECTION ( 'NONE',  ( 0.0000000000000000000, 0.0000000000000000000, 1.000000000000000000 ) ) ;
#7 = CARTESIAN_POINT ( 'NONE',  ( 4.189777606611760026E-14, 0.8299999999999939648, 12.00000000000000000 ) ) ;
#8 = AXIS2_PLACEMENT_3D ( 'NONE', #73, #38, #18 ) ;
#9 = FACE_OUTER_BOUND ( 'NONE', #110, .T. ) ;
#10 = CARTESIAN_POINT ( 'NONE',  ( 0.0000000000000000000, 0.0000000000000000000, 0.0000000000000000000 ) ) ;
#11 = CIRCLE ( 'NONE', #81, 0.8299999999999954081 ) ;
#12 = ADVANCED_FACE ( 'NONE', ( #20, #49 ), #133, .T. ) ;
#13 = APPROVAL_DATE_TIME ( #122, #219 ) ;
#14 = DATE_TIME_ROLE ( 'creation_date' ) ;
#15 = ADVANCED_FACE ( 'NONE', ( #106, #189 ), #86, .T. ) ;
#16 = DATE_AND_TIME ( #28, #127 ) ;
#17 = DIRECTION ( 'NONE',  ( -4.275831445896958607E-31, -1.000000000000000000, -1.224646799147353207E-16 ) ) ;
#18 = DIRECTION ( 'NONE',  ( 0.0000000000000000000, 1.000000000000000000, 0.0000000000000000000 ) ) ;
#19 = CARTESIAN_POINT ( 'NONE',  ( 4.189777606611760026E-14, 6.224003098046651871E-33, 12.00000000000000000 ) ) ;
#20 = FACE_OUTER_BOUND ( 'NONE', #2, .T. ) ;
#21 = DIRECTION ( 'NONE',  ( 4.275831445896958607E-31, 1.000000000000000000, 1.224646799147353207E-16 ) ) ;
#22 = CC_DESIGN_APPROVAL ( #59, ( #90 ) ) ;
#23 = CARTESIAN_POINT ( 'NONE',  ( 4.189777606611760026E-14, 6.224003098046651871E-33, 12.00000000000000000 ) ) ;
#24 = DIRECTION ( 'NONE',  ( 0.0000000000000000000, 1.000000000000000000, 0.0000000000000000000 ) ) ;
#25 = DIRECTION ( 'NONE',  ( 4.640795046716267439E-31, 1.000000000000000000, 1.306267677693389101E-16 ) ) ;
#26 = PERSON_AND_ORGANIZATION_ROLE ( 'design_owner' ) ;
#27 = ADVANCED_FACE ( 'NONE', ( #142, #129 ), #193, .T. ) ;
#28 = CALENDAR_DATE ( 2021, 8, 10 ) ;
#29 = AXIS2_PLACEMENT_3D ( 'NONE', #108, #126, #107 ) ;
#30 = LOCAL_TIME ( 7, 15, 40.00000000000000000, #63 ) ;
#31 = PERSON_AND_ORGANIZATION_ROLE ( 'creator' ) ;
#32 = SHAPE_DEFINITION_REPRESENTATION ( #1, #82 ) ;
#33 = CC_DESIGN_PERSON_AND_ORGANIZATION_ASSIGNMENT ( #84, #215, ( #203 ) ) ;
#34 = APPLICATION_PROTOCOL_DEFINITION ( 'international standard', 'config_control_design', 1994, #46 ) ;
#35 = ORGANIZATION ( 'UNSPECIFIED', 'UNSPECIFIED', '' ) ;
#36 = EDGE_LOOP ( 'NONE', ( #209 ) ) ;
#37 = ADVANCED_FACE ( 'NONE', ( #191 ), #51, .F. ) ;
#38 = DIRECTION ( 'NONE',  ( -3.491481338843133355E-15, 1.224646799147353207E-16, -1.000000000000000000 ) ) ;
#39 = PLANE ( 'NONE',  #50 ) ;
#40 = VERTEX_POINT ( 'NONE', #151 ) ;
#41 = PLANE ( 'NONE',  #120 ) ;
#42 = DIRECTION ( 'NONE',  ( 0.0000000000000000000, 1.000000000000000000, 0.0000000000000000000 ) ) ;
#43 = FACE_OUTER_BOUND ( 'NONE', #180, .T. ) ;
#44 = VERTEX_POINT ( 'NONE', #7 ) ;
#45 = DATE_AND_TIME ( #65, #30 ) ;
#46 = APPLICATION_CONTEXT ( 'configuration controlled 3d designs of mechanical parts and assemblies' ) ;
#47 = CC_DESIGN_SECURITY_CLASSIFICATION ( #187, ( #203 ) ) ;
#48 = APPROVAL ( #188, 'UNSPECIFIED' ) ;
#49 = FACE_BOUND ( 'NONE', #70, .T. ) ;
#50 = AXIS2_PLACEMENT_3D ( 'NONE', #85, #158, #163 ) ;
#51 = PLANE ( 'NONE',  #92 ) ;
#52 = ORIENTED_EDGE ( 'NONE', *, *, #139, .T. ) ;
#53 = DIRECTION ( 'NONE',  ( 4.275831445896957731E-31, 1.000000000000000000, 1.224646799147353454E-16 ) ) ;
#54 = CARTESIAN_POINT ( 'NONE',  ( 4.292583798845196436E-14, 0.9999999999999954481, 12.29444863728671855 ) ) ;
#55 = DIRECTION ( 'NONE',  ( 0.0000000000000000000, 1.000000000000000000, 0.0000000000000000000 ) ) ;
#56 = CIRCLE ( 'NONE', #130, 1.000000000000000888 ) ;
#57 =( NAMED_UNIT ( * ) SI_UNIT ( $, .STERADIAN. ) SOLID_ANGLE_UNIT ( ) );
#58 = CARTESIAN_POINT ( 'NONE',  ( 1.741251720021787480E-15, -6.107488880754149324E-17, 0.4987143137928766179 ) ) ;
#59 = APPROVAL ( #154, 'UNSPECIFIED' ) ;
#60 = COORDINATED_UNIVERSAL_TIME_OFFSET ( 1, 0, .AHEAD. ) ;
#61 = CLOSED_SHELL ( 'NONE', ( #37, #27, #15, #12, #105 ) ) ;
#62 = CALENDAR_DATE ( 2021, 8, 10 ) ;
#63 = COORDINATED_UNIVERSAL_TIME_OFFSET ( 1, 0, .AHEAD. ) ;
#64 = PERSON_AND_ORGANIZATION_ROLE ( 'classification_officer' ) ;
#65 = CALENDAR_DATE ( 2021, 8, 10 ) ;
#66 = ORIENTED_EDGE ( 'NONE', *, *, #153, .T. ) ;
#67 = CIRCLE ( 'NONE', #8, 0.9999999999999970024 ) ;
#68 = ORIENTED_EDGE ( 'NONE', *, *, #172, .T. ) ;
#69 = EDGE_LOOP ( 'NONE', ( #68 ) ) ;
#70 = EDGE_LOOP ( 'NONE', ( #66 ) ) ;
#71 = CC_DESIGN_DATE_AND_TIME_ASSIGNMENT ( #206, #136, ( #187 ) ) ;
#72 = AXIS2_PLACEMENT_3D ( 'NONE', #76, #211, #24 ) ;
#73 = CARTESIAN_POINT ( 'NONE',  ( 4.292583798845196436E-14, -1.505635717093471704E-15, 12.29444863728671855 ) ) ;
#74 = CARTESIAN_POINT ( 'NONE',  ( 1.319779946082704535E-13, -4.629164900776995227E-15, 37.79999999999999716 ) ) ;
#75 = PRODUCT_RELATED_PRODUCT_CATEGORY ( 'detail', '', ( #80 ) ) ;
#76 = CARTESIAN_POINT ( 'NONE',  ( 1.326762908760390423E-13, -4.653657836759941941E-15, 38.00000000000000000 ) ) ;
#77 = CC_DESIGN_DATE_AND_TIME_ASSIGNMENT ( #101, #14, ( #90 ) ) ;
#78 = DIRECTION ( 'NONE',  ( 3.491481338843133355E-15, -1.224646799147353207E-16, 1.000000000000000000 ) ) ;
#79 = PERSON_AND_ORGANIZATION ( #93, #35 ) ;
#80 = PRODUCT ( '55418', '55418', '', ( #173 ) ) ;
#81 = AXIS2_PLACEMENT_3D ( 'NONE', #115, #132, #42 ) ;
#82 = ADVANCED_BREP_SHAPE_REPRESENTATION ( '55418', ( #223, #156, #213 ), #87 ) ;
#83 = PERSON_AND_ORGANIZATION_ROLE ( 'creator' ) ;
#84 = PERSON_AND_ORGANIZATION ( #93, #35 ) ;
#85 = CARTESIAN_POINT ( 'NONE',  ( 1.326762908760390423E-13, 5.999039130647367482E-33, 38.00000000000000000 ) ) ;
#86 = CYLINDRICAL_SURFACE ( 'NONE', #198, 0.9999999999999988898 ) ;
#87 =( GEOMETRIC_REPRESENTATION_CONTEXT ( 3 ) GLOBAL_UNCERTAINTY_ASSIGNED_CONTEXT ( ( #183 ) ) GLOBAL_UNIT_ASSIGNED_CONTEXT ( ( #95, #181, #57 ) ) REPRESENTATION_CONTEXT ( 'NONE', 'WORKASPACE' ) );
#88 = DIRECTION ( 'NONE',  ( 3.491481338843133355E-15, -1.224646799147353207E-16, 1.000000000000000000 ) ) ;
#89 = EDGE_LOOP ( 'NONE', ( #159 ) ) ;
#90 = PRODUCT_DEFINITION ( 'UNKNOWN', '', #203, #96 ) ;
#91 = ORIENTED_EDGE ( 'NONE', *, *, #3, .F. ) ;
#92 = AXIS2_PLACEMENT_3D ( 'NONE', #19, #88, #17 ) ;
#93 = PERSON ( 'UNSPECIFIED', 'UNSPECIFIED', 'UNSPECIFIED', ('UNSPECIFIED'), ('UNSPECIFIED'), ('UNSPECIFIED') ) ;
#94 = CARTESIAN_POINT ( 'NONE',  ( 0.0000000000000000000, 0.0000000000000000000, 0.0000000000000000000 ) ) ;
#95 =( LENGTH_UNIT ( ) NAMED_UNIT ( * ) SI_UNIT ( .MILLI., .METRE. ) );
#96 = DESIGN_CONTEXT ( 'detailed design', #46, 'design' ) ;
#97 = CONICAL_SURFACE ( 'NONE', #178, 0.8299999999999935207, 1.029744258676649649 ) ;
#98 = CC_DESIGN_PERSON_AND_ORGANIZATION_ASSIGNMENT ( #155, #64, ( #187 ) ) ;
#99 = VERTEX_POINT ( 'NONE', #119 ) ;
#100 = SECURITY_CLASSIFICATION_LEVEL ( 'unclassified' ) ;
#101 = DATE_AND_TIME ( #137, #113 ) ;
#102 = AXIS2_PLACEMENT_3D ( 'NONE', #140, #131, #111 ) ;
#103 = LOCAL_TIME ( 7, 15, 40.00000000000000000, #60 ) ;
#104 = PERSON_AND_ORGANIZATION ( #93, #35 ) ;
#105 = ADVANCED_FACE ( 'NONE', ( #194 ), #39, .F. ) ;
#106 = FACE_OUTER_BOUND ( 'NONE', #177, .T. ) ;
#107 = DIRECTION ( 'NONE',  ( 0.0000000000000000000, 1.000000000000000000, 0.0000000000000000000 ) ) ;
#108 = CARTESIAN_POINT ( 'NONE',  ( 1.326762908760390423E-13, -4.653657836759941941E-15, 38.00000000000000000 ) ) ;
#109 = ADVANCED_FACE ( 'NONE', ( #9 ), #41, .T. ) ;
#110 = EDGE_LOOP ( 'NONE', ( #179 ) ) ;
#111 = DIRECTION ( 'NONE',  ( 0.0000000000000000000, -1.000000000000000000, 0.0000000000000000000 ) ) ;
#112 = ADVANCED_FACE ( 'NONE', ( #116 ), #97, .T. ) ;
#113 = LOCAL_TIME ( 7, 15, 40.00000000000000000, #124 ) ;
#114 = CC_DESIGN_APPROVAL ( #219, ( #203 ) ) ;
#115 = CARTESIAN_POINT ( 'NONE',  ( 4.189777606611760026E-14, -1.469576158976823947E-15, 12.00000000000000000 ) ) ;
#116 = FACE_OUTER_BOUND ( 'NONE', #89, .T. ) ;
#117 = CC_DESIGN_PERSON_AND_ORGANIZATION_ASSIGNMENT ( #207, #83, ( #203 ) ) ;
#118 = FACE_OUTER_BOUND ( 'NONE', #69, .T. ) ;
#119 = CARTESIAN_POINT ( 'NONE',  ( 1.741251720021787874E-15, 0.8299999999999934097, 0.4987143137928767289 ) ) ;
#120 = AXIS2_PLACEMENT_3D ( 'NONE', #23, #147, #196 ) ;
#121 = APPROVAL_PERSON_ORGANIZATION ( #222, #48, #204 ) ;
#122 = DATE_AND_TIME ( #171, #210 ) ;
#123 = EDGE_CURVE ( 'NONE', #40, #40, #221, .T. ) ;
#124 = COORDINATED_UNIVERSAL_TIME_OFFSET ( 1, 0, .AHEAD. ) ;
#125 = PERSON_AND_ORGANIZATION ( #93, #35 ) ;
#126 = DIRECTION ( 'NONE',  ( -3.491481338843133355E-15, 1.224646799147353207E-16, -1.000000000000000000 ) ) ;
#127 = LOCAL_TIME ( 7, 15, 40.00000000000000000, #152 ) ;
#128 = EDGE_LOOP ( 'NONE', ( #160 ) ) ;
#129 = FACE_OUTER_BOUND ( 'NONE', #128, .T. ) ;
#130 = AXIS2_PLACEMENT_3D ( 'NONE', #74, #212, #55 ) ;
#131 = DIRECTION ( 'NONE',  ( 3.491481338843133355E-15, -1.224646799147353207E-16, 1.000000000000000000 ) ) ;
#132 = DIRECTION ( 'NONE',  ( -3.491481338843133355E-15, 1.224646799147353207E-16, -1.000000000000000000 ) ) ;
#133 = CONICAL_SURFACE ( 'NONE', #29, 0.8000000000000009326, 0.7853981633974512766 ) ;
#134 = DIRECTION ( 'NONE',  ( 0.0000000000000000000, 1.000000000000000000, 0.0000000000000000000 ) ) ;
#135 = COORDINATED_UNIVERSAL_TIME_OFFSET ( 1, 0, .AHEAD. ) ;
#136 = DATE_TIME_ROLE ( 'classification_date' ) ;
#137 = CALENDAR_DATE ( 2021, 8, 10 ) ;
#138 = PERSON_AND_ORGANIZATION ( #93, #35 ) ;
#139 = EDGE_CURVE ( 'NONE', #214, #214, #56, .T. ) ;
#140 = CARTESIAN_POINT ( 'NONE',  ( 4.292583798845196436E-14, -1.505635717093471704E-15, 12.29444863728671855 ) ) ;
#141 = ORIENTED_EDGE ( 'NONE', *, *, #123, .T. ) ;
#142 = FACE_BOUND ( 'NONE', #143, .T. ) ;
#143 = EDGE_LOOP ( 'NONE', ( #176 ) ) ;
#144 = AXIS2_PLACEMENT_3D ( 'NONE', #201, #162, #134 ) ;
#145 = ADVANCED_FACE ( 'NONE', ( #43, #118 ), #195, .T. ) ;
#146 = ORIENTED_EDGE ( 'NONE', *, *, #197, .F. ) ;
#147 = DIRECTION ( 'NONE',  ( 3.491481338843133355E-15, -1.224646799147353207E-16, 1.000000000000000000 ) ) ;
#148 = DIRECTION ( 'NONE',  ( -4.640795046716267439E-31, -1.000000000000000000, -1.306267677693389101E-16 ) ) ;
#149 = CC_DESIGN_APPROVAL ( #48, ( #187 ) ) ;
#150 = DIRECTION ( 'NONE',  ( -3.491481338843133355E-15, 1.224646799147353207E-16, -1.000000000000000000 ) ) ;
#151 = CARTESIAN_POINT ( 'NONE',  ( 4.189777606611760026E-14, 0.8299999999999939648, 12.00000000000000000 ) ) ;
#152 = COORDINATED_UNIVERSAL_TIME_OFFSET ( 1, 0, .AHEAD. ) ;
#153 = EDGE_CURVE ( 'NONE', #184, #184, #174, .T. ) ;
#154 = APPROVAL_STATUS ( 'not_yet_approved' ) ;
#155 = PERSON_AND_ORGANIZATION ( #93, #35 ) ;
#156 = MANIFOLD_SOLID_BREP ( 'Corps-Déplacer/Copier1[2]', #170 ) ;
#157 = CC_DESIGN_PERSON_AND_ORGANIZATION_ASSIGNMENT ( #104, #31, ( #90 ) ) ;
#158 = DIRECTION ( 'NONE',  ( -3.491481338843133355E-15, 1.224646799147353207E-16, -1.000000000000000000 ) ) ;
#159 = ORIENTED_EDGE ( 'NONE', *, *, #197, .T. ) ;
#160 = ORIENTED_EDGE ( 'NONE', *, *, #3, .T. ) ;
#161 = APPROVAL_PERSON_ORGANIZATION ( #125, #59, #217 ) ;
#162 = DIRECTION ( 'NONE',  ( -3.491481338843133355E-15, 1.224646799147353207E-16, -1.000000000000000000 ) ) ;
#163 = DIRECTION ( 'NONE',  ( 4.275831445896958607E-31, 1.000000000000000000, 1.224646799147353207E-16 ) ) ;
#164 = VERTEX_POINT ( 'NONE', #54 ) ;
#165 = APPLICATION_PROTOCOL_DEFINITION ( 'international standard', 'config_control_design', 1994, #168 ) ;
#166 = CARTESIAN_POINT ( 'NONE',  ( 1.319779946082704535E-13, 0.9999999999999963363, 37.79999999999999716 ) ) ;
#167 = DIRECTION ( 'NONE',  ( 1.000000000000000000, 0.0000000000000000000, 0.0000000000000000000 ) ) ;
#168 = APPLICATION_CONTEXT ( 'configuration controlled 3d designs of mechanical parts and assemblies' ) ;
#169 = APPROVAL_STATUS ( 'not_yet_approved' ) ;
#170 = CLOSED_SHELL ( 'NONE', ( #112, #145, #109 ) ) ;
#171 = CALENDAR_DATE ( 2021, 8, 10 ) ;
#172 = EDGE_CURVE ( 'NONE', #44, #44, #11, .T. ) ;
#173 = MECHANICAL_CONTEXT ( 'NONE', #168, 'mechanical' ) ;
#174 = CIRCLE ( 'NONE', #72, 0.8000000000000009326 ) ;
#175 = DIRECTION ( 'NONE',  ( -3.491481338843133355E-15, 1.224646799147353207E-16, -1.000000000000000000 ) ) ;
#176 = ORIENTED_EDGE ( 'NONE', *, *, #123, .F. ) ;
#177 = EDGE_LOOP ( 'NONE', ( #91 ) ) ;
#178 = AXIS2_PLACEMENT_3D ( 'NONE', #58, #78, #148 ) ;
#179 = ORIENTED_EDGE ( 'NONE', *, *, #172, .F. ) ;
#180 = EDGE_LOOP ( 'NONE', ( #146 ) ) ;
#181 =( NAMED_UNIT ( * ) PLANE_ANGLE_UNIT ( ) SI_UNIT ( $, .RADIAN. ) );
#182 = AXIS2_PLACEMENT_3D ( 'NONE', #10, #200, #21 ) ;
#183 = UNCERTAINTY_MEASURE_WITH_UNIT (LENGTH_MEASURE( 1.000000000000000082E-05 ), #95, 'distance_accuracy_value', 'NONE');
#184 = VERTEX_POINT ( 'NONE', #202 ) ;
#185 = CC_DESIGN_PERSON_AND_ORGANIZATION_ASSIGNMENT ( #79, #26, ( #80 ) ) ;
#186 = CARTESIAN_POINT ( 'NONE',  ( 1.741251720021787480E-15, -6.107488880754149324E-17, 0.4987143137928766179 ) ) ;
#187 = SECURITY_CLASSIFICATION ( '', '', #100 ) ;
#188 = APPROVAL_STATUS ( 'not_yet_approved' ) ;
#189 = FACE_OUTER_BOUND ( 'NONE', #192, .T. ) ;
#190 = EDGE_LOOP ( 'NONE', ( #141 ) ) ;
#191 = FACE_OUTER_BOUND ( 'NONE', #190, .T. ) ;
#192 = EDGE_LOOP ( 'NONE', ( #52 ) ) ;
#193 = CONICAL_SURFACE ( 'NONE', #102, 0.9999999999999970024, 0.5235987755982906000 ) ;
#194 = FACE_OUTER_BOUND ( 'NONE', #36, .T. ) ;
#195 = CYLINDRICAL_SURFACE ( 'NONE', #182, 0.8299999999999945199 ) ;
#196 = DIRECTION ( 'NONE',  ( -4.275831445896958607E-31, -1.000000000000000000, -1.224646799147353207E-16 ) ) ;
#197 = EDGE_CURVE ( 'NONE', #99, #99, #216, .T. ) ;
#198 = AXIS2_PLACEMENT_3D ( 'NONE', #208, #175, #53 ) ;
#199 = APPROVAL_PERSON_ORGANIZATION ( #138, #219, #205 ) ;
#200 = DIRECTION ( 'NONE',  ( -3.491481338843133355E-15, 1.224646799147353207E-16, -1.000000000000000000 ) ) ;
#201 = CARTESIAN_POINT ( 'NONE',  ( 4.189777606611760026E-14, -1.469576158976823947E-15, 12.00000000000000000 ) ) ;
#202 = CARTESIAN_POINT ( 'NONE',  ( 1.326762908760390423E-13, 0.7999999999999962697, 38.00000000000000000 ) ) ;
#203 = PRODUCT_DEFINITION_FORMATION_WITH_SPECIFIED_SOURCE ( 'ANY', '', #80, .NOT_KNOWN. ) ;
#204 = APPROVAL_ROLE ( '' ) ;
#205 = APPROVAL_ROLE ( '' ) ;
#206 = DATE_AND_TIME ( #62, #103 ) ;
#207 = PERSON_AND_ORGANIZATION ( #93, #35 ) ;
#208 = CARTESIAN_POINT ( 'NONE',  ( 0.0000000000000000000, 0.0000000000000000000, 0.0000000000000000000 ) ) ;
#209 = ORIENTED_EDGE ( 'NONE', *, *, #153, .F. ) ;
#210 = LOCAL_TIME ( 7, 15, 40.00000000000000000, #135 ) ;
#211 = DIRECTION ( 'NONE',  ( -3.491481338843133355E-15, 1.224646799147353207E-16, -1.000000000000000000 ) ) ;
#212 = DIRECTION ( 'NONE',  ( -3.491481338843133355E-15, 1.224646799147353207E-16, -1.000000000000000000 ) ) ;
#213 = AXIS2_PLACEMENT_3D ( 'NONE', #94, #6, #167 ) ;
#214 = VERTEX_POINT ( 'NONE', #166 ) ;
#215 = PERSON_AND_ORGANIZATION_ROLE ( 'design_supplier' ) ;
#216 = CIRCLE ( 'NONE', #5, 0.8299999999999935207 ) ;
#217 = APPROVAL_ROLE ( '' ) ;
#218 = APPROVAL_DATE_TIME ( #45, #48 ) ;
#219 = APPROVAL ( #169, 'UNSPECIFIED' ) ;
#220 = APPROVAL_DATE_TIME ( #16, #59 ) ;
#221 = CIRCLE ( 'NONE', #144, 0.8299999999999954081 ) ;
#222 = PERSON_AND_ORGANIZATION ( #93, #35 ) ;
#223 = MANIFOLD_SOLID_BREP ( 'Corps-Déplacer/Copier1[1]', #61 ) ;
ENDSEC;
END-ISO-10303-21;
