ISO-10303-21;
HEADER;
FILE_DESCRIPTION (( 'STEP AP203' ),
    '1' );
FILE_NAME ('55417.step',
    '2021-10-08T05:15:40',
    ( '' ),
    ( '' ),
    'SwSTEP 2.0',
    'SolidWorks 2019',
    '' );
FILE_SCHEMA (( 'CONFIG_CONTROL_DESIGN' ));
ENDSEC;

DATA;
#1 = EDGE_CURVE ( 'NONE', #21, #21, #129, .T. ) ;
#2 = PERSON_AND_ORGANIZATION ( #16, #3 ) ;
#3 = ORGANIZATION ( 'UNSPECIFIED', 'UNSPECIFIED', '' ) ;
#4 = DATE_AND_TIME ( #193, #205 ) ;
#5 = APPROVAL_ROLE ( '' ) ;
#6 = APPROVAL_DATE_TIME ( #160, #63 ) ;
#7 = APPLICATION_CONTEXT ( 'configuration controlled 3d designs of mechanical parts and assemblies' ) ;
#8 = CARTESIAN_POINT ( 'NONE',  ( 1.319779946082704535E-13, -4.629164900776995227E-15, 37.79999999999999716 ) ) ;
#9 = AXIS2_PLACEMENT_3D ( 'NONE', #223, #19, #34 ) ;
#10 = CC_DESIGN_APPROVAL ( #26, ( #31 ) ) ;
#11 = ORIENTED_EDGE ( 'NONE', *, *, #76, .F. ) ;
#12 = CARTESIAN_POINT ( 'NONE',  ( 0.0000000000000000000, 0.0000000000000000000, 0.0000000000000000000 ) ) ;
#13 = CARTESIAN_POINT ( 'NONE',  ( 4.189777606611760657E-14, -1.469576158976824144E-15, 12.00000000000000178 ) ) ;
#14 = AXIS2_PLACEMENT_3D ( 'NONE', #157, #33, #174 ) ;
#15 = VERTEX_POINT ( 'NONE', #155 ) ;
#16 = PERSON ( 'UNSPECIFIED', 'UNSPECIFIED', 'UNSPECIFIED', ('UNSPECIFIED'), ('UNSPECIFIED'), ('UNSPECIFIED') ) ;
#17 = ADVANCED_FACE ( 'NONE', ( #115 ), #156, .T. ) ;
#18 =( NAMED_UNIT ( * ) SI_UNIT ( $, .STERADIAN. ) SOLID_ANGLE_UNIT ( ) );
#19 = DIRECTION ( 'NONE',  ( -3.491481338843133355E-15, 1.224646799147353207E-16, -1.000000000000000000 ) ) ;
#20 = AXIS2_PLACEMENT_3D ( 'NONE', #204, #106, #105 ) ;
#21 = VERTEX_POINT ( 'NONE', #72 ) ;
#22 = DATE_TIME_ROLE ( 'creation_date' ) ;
#23 = PERSON_AND_ORGANIZATION ( #16, #3 ) ;
#24 = AXIS2_PLACEMENT_3D ( 'NONE', #69, #200, #172 ) ;
#25 = APPROVAL_DATE_TIME ( #4, #180 ) ;
#26 = APPROVAL ( #144, 'UNSPECIFIED' ) ;
#27 = EDGE_LOOP ( 'NONE', ( #212 ) ) ;
#28 = FACE_OUTER_BOUND ( 'NONE', #215, .T. ) ;
#29 = CARTESIAN_POINT ( 'NONE',  ( 4.295607510381474571E-14, 0.9999999999999954481, 12.30310889132456253 ) ) ;
#30 = DIRECTION ( 'NONE',  ( -3.491481338843133355E-15, 1.224646799147353207E-16, -1.000000000000000000 ) ) ;
#31 = SECURITY_CLASSIFICATION ( '', '', #109 ) ;
#32 =( LENGTH_UNIT ( ) NAMED_UNIT ( * ) SI_UNIT ( .MILLI., .METRE. ) );
#33 = DIRECTION ( 'NONE',  ( 3.491481338843133355E-15, -1.224646799147353207E-16, 1.000000000000000000 ) ) ;
#34 = DIRECTION ( 'NONE',  ( 0.0000000000000000000, 1.000000000000000000, 0.0000000000000000000 ) ) ;
#35 = APPROVAL_PERSON_ORGANIZATION ( #52, #26, #145 ) ;
#36 = CLOSED_SHELL ( 'NONE', ( #17, #103, #183 ) ) ;
#37 = PERSON_AND_ORGANIZATION ( #16, #3 ) ;
#38 = AXIS2_PLACEMENT_3D ( 'NONE', #139, #30, #203 ) ;
#39 = PERSON_AND_ORGANIZATION_ROLE ( 'creator' ) ;
#40 = AXIS2_PLACEMENT_3D ( 'NONE', #186, #108, #159 ) ;
#41 = ORIENTED_EDGE ( 'NONE', *, *, #158, .F. ) ;
#42 = DIRECTION ( 'NONE',  ( -3.491481338843133355E-15, 1.224646799147353207E-16, -1.000000000000000000 ) ) ;
#43 = AXIS2_PLACEMENT_3D ( 'NONE', #8, #165, #147 ) ;
#44 = EDGE_LOOP ( 'NONE', ( #66 ) ) ;
#45 = DIRECTION ( 'NONE',  ( -3.491481338843133355E-15, 1.224646799147353207E-16, -1.000000000000000000 ) ) ;
#46 = CC_DESIGN_PERSON_AND_ORGANIZATION_ASSIGNMENT ( #23, #141, ( #54 ) ) ;
#47 = FACE_OUTER_BOUND ( 'NONE', #27, .T. ) ;
#48 = AXIS2_PLACEMENT_3D ( 'NONE', #124, #123, #88 ) ;
#49 = DIRECTION ( 'NONE',  ( 0.0000000000000000000, -1.000000000000000000, 0.0000000000000000000 ) ) ;
#50 = PRODUCT_RELATED_PRODUCT_CATEGORY ( 'detail', '', ( #131 ) ) ;
#51 = CARTESIAN_POINT ( 'NONE',  ( 4.295607510381474571E-14, -1.506696292332196748E-15, 12.30310889132456253 ) ) ;
#52 = PERSON_AND_ORGANIZATION ( #16, #3 ) ;
#53 = CIRCLE ( 'NONE', #48, 0.9999999999999970024 ) ;
#54 = PRODUCT_DEFINITION_FORMATION_WITH_SPECIFIED_SOURCE ( 'ANY', '', #131, .NOT_KNOWN. ) ;
#55 = APPLICATION_PROTOCOL_DEFINITION ( 'international standard', 'config_control_design', 1994, #218 ) ;
#56 = ADVANCED_FACE ( 'NONE', ( #28, #133 ), #149, .T. ) ;
#57 = APPROVAL_STATUS ( 'not_yet_approved' ) ;
#58 = AXIS2_PLACEMENT_3D ( 'NONE', #101, #216, #64 ) ;
#59 = PERSON_AND_ORGANIZATION ( #16, #3 ) ;
#60 = DIRECTION ( 'NONE',  ( 3.491481338843133355E-15, -1.224646799147353207E-16, 1.000000000000000000 ) ) ;
#61 = ORIENTED_EDGE ( 'NONE', *, *, #107, .F. ) ;
#62 = ORIENTED_EDGE ( 'NONE', *, *, #1, .F. ) ;
#63 = APPROVAL ( #57, 'UNSPECIFIED' ) ;
#64 = DIRECTION ( 'NONE',  ( 0.0000000000000000000, 1.000000000000000000, 0.0000000000000000000 ) ) ;
#65 = MANIFOLD_SOLID_BREP ( 'Corps-Déplacer/Copier1[1]', #221 ) ;
#66 = ORIENTED_EDGE ( 'NONE', *, *, #164, .T. ) ;
#67 = DIRECTION ( 'NONE',  ( 4.668921077302426306E-31, 1.000000000000000000, 1.314184451497591366E-16 ) ) ;
#68 = VERTEX_POINT ( 'NONE', #29 ) ;
#69 = CARTESIAN_POINT ( 'NONE',  ( 0.0000000000000000000, 0.0000000000000000000, 0.0000000000000000000 ) ) ;
#70 = FACE_BOUND ( 'NONE', #134, .T. ) ;
#71 = EDGE_CURVE ( 'NONE', #140, #140, #126, .T. ) ;
#72 = CARTESIAN_POINT ( 'NONE',  ( 1.319779946082704535E-13, 0.9999999999999963363, 37.79999999999999716 ) ) ;
#73 = DATE_AND_TIME ( #192, #111 ) ;
#74 = AXIS2_PLACEMENT_3D ( 'NONE', #207, #95, #209 ) ;
#75 =( GEOMETRIC_REPRESENTATION_CONTEXT ( 3 ) GLOBAL_UNCERTAINTY_ASSIGNED_CONTEXT ( ( #148 ) ) GLOBAL_UNIT_ASSIGNED_CONTEXT ( ( #32, #104, #18 ) ) REPRESENTATION_CONTEXT ( 'NONE', 'WORKASPACE' ) );
#76 = EDGE_CURVE ( 'NONE', #15, #15, #116, .T. ) ;
#77 = ADVANCED_BREP_SHAPE_REPRESENTATION ( '55417', ( #65, #211, #74 ), #75 ) ;
#78 = CALENDAR_DATE ( 2021, 8, 10 ) ;
#79 = CONICAL_SURFACE ( 'NONE', #198, 0.9999999999999970024, 0.5235987755982915992 ) ;
#80 = COORDINATED_UNIVERSAL_TIME_OFFSET ( 1, 0, .AHEAD. ) ;
#81 = ORIENTED_EDGE ( 'NONE', *, *, #164, .F. ) ;
#82 = CONICAL_SURFACE ( 'NONE', #9, 0.8000000000000009326, 0.7853981633974512766 ) ;
#83 = CC_DESIGN_APPROVAL ( #180, ( #196 ) ) ;
#84 = EDGE_LOOP ( 'NONE', ( #137 ) ) ;
#85 = DIRECTION ( 'NONE',  ( -3.491481338843133355E-15, 1.224646799147353207E-16, -1.000000000000000000 ) ) ;
#86 = CYLINDRICAL_SURFACE ( 'NONE', #24, 0.8249999999999946265 ) ;
#87 = FACE_OUTER_BOUND ( 'NONE', #84, .T. ) ;
#88 = DIRECTION ( 'NONE',  ( 0.0000000000000000000, 1.000000000000000000, 0.0000000000000000000 ) ) ;
#89 = CC_DESIGN_PERSON_AND_ORGANIZATION_ASSIGNMENT ( #130, #39, ( #196 ) ) ;
#90 = LOCAL_TIME ( 7, 15, 40.00000000000000000, #208 ) ;
#91 = DIRECTION ( 'NONE',  ( 3.491481338843133355E-15, -1.224646799147353207E-16, 1.000000000000000000 ) ) ;
#92 = APPROVAL_STATUS ( 'not_yet_approved' ) ;
#93 = PERSON_AND_ORGANIZATION_ROLE ( 'creator' ) ;
#94 = APPROVAL_ROLE ( '' ) ;
#95 = DIRECTION ( 'NONE',  ( 0.0000000000000000000, 0.0000000000000000000, 1.000000000000000000 ) ) ;
#96 = COORDINATED_UNIVERSAL_TIME_OFFSET ( 1, 0, .AHEAD. ) ;
#97 = EDGE_LOOP ( 'NONE', ( #61 ) ) ;
#98 = ADVANCED_FACE ( 'NONE', ( #47 ), #184, .F. ) ;
#99 = DIRECTION ( 'NONE',  ( 4.275831445896957731E-31, 1.000000000000000000, 1.224646799147353454E-16 ) ) ;
#100 = AXIS2_PLACEMENT_3D ( 'NONE', #135, #85, #67 ) ;
#101 = CARTESIAN_POINT ( 'NONE',  ( 1.326762908760390423E-13, -4.653657836759941941E-15, 38.00000000000000000 ) ) ;
#102 = ORIENTED_EDGE ( 'NONE', *, *, #1, .T. ) ;
#103 = ADVANCED_FACE ( 'NONE', ( #138, #87 ), #86, .T. ) ;
#104 =( NAMED_UNIT ( * ) PLANE_ANGLE_UNIT ( ) SI_UNIT ( $, .RADIAN. ) );
#105 = DIRECTION ( 'NONE',  ( 0.0000000000000000000, 1.000000000000000000, 0.0000000000000000000 ) ) ;
#106 = DIRECTION ( 'NONE',  ( -3.491481338843133355E-15, 1.224646799147353207E-16, -1.000000000000000000 ) ) ;
#107 = EDGE_CURVE ( 'NONE', #222, #222, #120, .T. ) ;
#108 = DIRECTION ( 'NONE',  ( 3.491481338843133355E-15, -1.224646799147353207E-16, 1.000000000000000000 ) ) ;
#109 = SECURITY_CLASSIFICATION_LEVEL ( 'unclassified' ) ;
#110 = PERSON_AND_ORGANIZATION ( #16, #3 ) ;
#111 = LOCAL_TIME ( 7, 15, 40.00000000000000000, #125 ) ;
#112 = APPROVAL_DATE_TIME ( #73, #26 ) ;
#113 = ADVANCED_FACE ( 'NONE', ( #202, #70 ), #82, .T. ) ;
#114 = ADVANCED_FACE ( 'NONE', ( #122, #187 ), #79, .T. ) ;
#115 = FACE_OUTER_BOUND ( 'NONE', #117, .T. ) ;
#116 = CIRCLE ( 'NONE', #100, 0.8249999999999936273 ) ;
#117 = EDGE_LOOP ( 'NONE', ( #169 ) ) ;
#118 = FACE_OUTER_BOUND ( 'NONE', #97, .T. ) ;
#119 = DIRECTION ( 'NONE',  ( 0.0000000000000000000, 1.000000000000000000, 0.0000000000000000000 ) ) ;
#120 = CIRCLE ( 'NONE', #20, 0.8249999999999956257 ) ;
#121 = LOCAL_TIME ( 7, 15, 40.00000000000000000, #96 ) ;
#122 = FACE_BOUND ( 'NONE', #166, .T. ) ;
#123 = DIRECTION ( 'NONE',  ( -3.491481338843133355E-15, 1.224646799147353207E-16, -1.000000000000000000 ) ) ;
#124 = CARTESIAN_POINT ( 'NONE',  ( 4.295607510381474571E-14, -1.506696292332196748E-15, 12.30310889132456253 ) ) ;
#125 = COORDINATED_UNIVERSAL_TIME_OFFSET ( 1, 0, .AHEAD. ) ;
#126 = CIRCLE ( 'NONE', #58, 0.8000000000000009326 ) ;
#127 = PERSON_AND_ORGANIZATION_ROLE ( 'design_owner' ) ;
#128 = DATE_AND_TIME ( #78, #167 ) ;
#129 = CIRCLE ( 'NONE', #43, 1.000000000000000888 ) ;
#130 = PERSON_AND_ORGANIZATION ( #16, #3 ) ;
#131 = PRODUCT ( '55417', '55417', '', ( #177 ) ) ;
#132 = ORIENTED_EDGE ( 'NONE', *, *, #158, .T. ) ;
#133 = FACE_OUTER_BOUND ( 'NONE', #199, .T. ) ;
#134 = EDGE_LOOP ( 'NONE', ( #194 ) ) ;
#135 = CARTESIAN_POINT ( 'NONE',  ( 1.730762251828885000E-15, -6.070696779062860515E-17, 0.4957100106977388454 ) ) ;
#136 = CC_DESIGN_APPROVAL ( #63, ( #54 ) ) ;
#137 = ORIENTED_EDGE ( 'NONE', *, *, #107, .T. ) ;
#138 = FACE_OUTER_BOUND ( 'NONE', #197, .T. ) ;
#139 = CARTESIAN_POINT ( 'NONE',  ( 1.326762908760390423E-13, 5.999039130647367482E-33, 38.00000000000000000 ) ) ;
#140 = VERTEX_POINT ( 'NONE', #219 ) ;
#141 = PERSON_AND_ORGANIZATION_ROLE ( 'design_supplier' ) ;
#142 = APPLICATION_PROTOCOL_DEFINITION ( 'international standard', 'config_control_design', 1994, #7 ) ;
#143 = CC_DESIGN_DATE_AND_TIME_ASSIGNMENT ( #128, #189, ( #31 ) ) ;
#144 = APPROVAL_STATUS ( 'not_yet_approved' ) ;
#145 = APPROVAL_ROLE ( '' ) ;
#146 = PRODUCT_DEFINITION_SHAPE ( 'NONE', 'NONE',  #196 ) ;
#147 = DIRECTION ( 'NONE',  ( 0.0000000000000000000, 1.000000000000000000, 0.0000000000000000000 ) ) ;
#148 = UNCERTAINTY_MEASURE_WITH_UNIT (LENGTH_MEASURE( 1.000000000000000082E-05 ), #32, 'distance_accuracy_value', 'NONE');
#149 = CYLINDRICAL_SURFACE ( 'NONE', #210, 0.9999999999999988898 ) ;
#150 = CC_DESIGN_PERSON_AND_ORGANIZATION_ASSIGNMENT ( #37, #161, ( #31 ) ) ;
#151 = AXIS2_PLACEMENT_3D ( 'NONE', #13, #45, #119 ) ;
#152 = CARTESIAN_POINT ( 'NONE',  ( 4.189777606611760657E-14, 0.8249999999999941824, 12.00000000000000178 ) ) ;
#153 = CC_DESIGN_PERSON_AND_ORGANIZATION_ASSIGNMENT ( #59, #127, ( #131 ) ) ;
#154 = CARTESIAN_POINT ( 'NONE',  ( 4.189777606611760657E-14, 0.8249999999999941824, 12.00000000000000178 ) ) ;
#155 = CARTESIAN_POINT ( 'NONE',  ( 1.730762251828885394E-15, 0.8249999999999935163, 0.4957100106977389009 ) ) ;
#156 = CONICAL_SURFACE ( 'NONE', #217, 0.8249999999999936273, 1.029744258676649649 ) ;
#157 = CARTESIAN_POINT ( 'NONE',  ( 4.189777606611760026E-14, 6.186509103480106526E-33, 12.00000000000000000 ) ) ;
#158 = EDGE_CURVE ( 'NONE', #182, #182, #173, .T. ) ;
#159 = DIRECTION ( 'NONE',  ( -4.275831445896958607E-31, -1.000000000000000000, -1.224646799147353207E-16 ) ) ;
#160 = DATE_AND_TIME ( #163, #121 ) ;
#161 = PERSON_AND_ORGANIZATION_ROLE ( 'classification_officer' ) ;
#162 = CALENDAR_DATE ( 2021, 8, 10 ) ;
#163 = CALENDAR_DATE ( 2021, 8, 10 ) ;
#164 = EDGE_CURVE ( 'NONE', #68, #68, #53, .T. ) ;
#165 = DIRECTION ( 'NONE',  ( -3.491481338843133355E-15, 1.224646799147353207E-16, -1.000000000000000000 ) ) ;
#166 = EDGE_LOOP ( 'NONE', ( #41 ) ) ;
#167 = LOCAL_TIME ( 7, 15, 40.00000000000000000, #80 ) ;
#168 = EDGE_LOOP ( 'NONE', ( #132 ) ) ;
#169 = ORIENTED_EDGE ( 'NONE', *, *, #76, .T. ) ;
#170 = CC_DESIGN_SECURITY_CLASSIFICATION ( #31, ( #54 ) ) ;
#171 = FACE_OUTER_BOUND ( 'NONE', #168, .T. ) ;
#172 = DIRECTION ( 'NONE',  ( 4.275831445896957731E-31, 1.000000000000000000, 1.224646799147353207E-16 ) ) ;
#173 = CIRCLE ( 'NONE', #151, 0.8249999999999956257 ) ;
#174 = DIRECTION ( 'NONE',  ( -4.275831445896958607E-31, -1.000000000000000000, -1.224646799147353207E-16 ) ) ;
#175 = PERSON_AND_ORGANIZATION ( #16, #3 ) ;
#176 = CC_DESIGN_DATE_AND_TIME_ASSIGNMENT ( #178, #22, ( #196 ) ) ;
#177 = MECHANICAL_CONTEXT ( 'NONE', #218, 'mechanical' ) ;
#178 = DATE_AND_TIME ( #162, #90 ) ;
#179 = CARTESIAN_POINT ( 'NONE',  ( 1.730762251828885000E-15, -6.070696779062860515E-17, 0.4957100106977388454 ) ) ;
#180 = APPROVAL ( #92, 'UNSPECIFIED' ) ;
#181 = DIRECTION ( 'NONE',  ( -4.668921077302426306E-31, -1.000000000000000000, -1.314184451497591366E-16 ) ) ;
#182 = VERTEX_POINT ( 'NONE', #152 ) ;
#183 = ADVANCED_FACE ( 'NONE', ( #118 ), #185, .T. ) ;
#184 = PLANE ( 'NONE',  #38 ) ;
#185 = PLANE ( 'NONE',  #40 ) ;
#186 = CARTESIAN_POINT ( 'NONE',  ( 4.189777606611760026E-14, 6.186509103480106526E-33, 12.00000000000000000 ) ) ;
#187 = FACE_OUTER_BOUND ( 'NONE', #44, .T. ) ;
#188 = APPROVAL_PERSON_ORGANIZATION ( #110, #180, #94 ) ;
#189 = DATE_TIME_ROLE ( 'classification_date' ) ;
#190 = CC_DESIGN_PERSON_AND_ORGANIZATION_ASSIGNMENT ( #175, #93, ( #54 ) ) ;
#191 = COORDINATED_UNIVERSAL_TIME_OFFSET ( 1, 0, .AHEAD. ) ;
#192 = CALENDAR_DATE ( 2021, 8, 10 ) ;
#193 = CALENDAR_DATE ( 2021, 8, 10 ) ;
#194 = ORIENTED_EDGE ( 'NONE', *, *, #71, .T. ) ;
#195 = DESIGN_CONTEXT ( 'detailed design', #7, 'design' ) ;
#196 = PRODUCT_DEFINITION ( 'UNKNOWN', '', #54, #195 ) ;
#197 = EDGE_LOOP ( 'NONE', ( #11 ) ) ;
#198 = AXIS2_PLACEMENT_3D ( 'NONE', #51, #91, #49 ) ;
#199 = EDGE_LOOP ( 'NONE', ( #102 ) ) ;
#200 = DIRECTION ( 'NONE',  ( -3.491481338843133355E-15, 1.224646799147353207E-16, -1.000000000000000000 ) ) ;
#201 = APPROVAL_PERSON_ORGANIZATION ( #2, #63, #5 ) ;
#202 = FACE_OUTER_BOUND ( 'NONE', #214, .T. ) ;
#203 = DIRECTION ( 'NONE',  ( 4.275831445896958607E-31, 1.000000000000000000, 1.224646799147353207E-16 ) ) ;
#204 = CARTESIAN_POINT ( 'NONE',  ( 4.189777606611760657E-14, -1.469576158976824144E-15, 12.00000000000000178 ) ) ;
#205 = LOCAL_TIME ( 7, 15, 40.00000000000000000, #191 ) ;
#206 = SHAPE_DEFINITION_REPRESENTATION ( #146, #77 ) ;
#207 = CARTESIAN_POINT ( 'NONE',  ( 0.0000000000000000000, 0.0000000000000000000, 0.0000000000000000000 ) ) ;
#208 = COORDINATED_UNIVERSAL_TIME_OFFSET ( 1, 0, .AHEAD. ) ;
#209 = DIRECTION ( 'NONE',  ( 1.000000000000000000, 0.0000000000000000000, 0.0000000000000000000 ) ) ;
#210 = AXIS2_PLACEMENT_3D ( 'NONE', #12, #42, #99 ) ;
#211 = MANIFOLD_SOLID_BREP ( 'Corps-Déplacer/Copier1[2]', #36 ) ;
#212 = ORIENTED_EDGE ( 'NONE', *, *, #71, .F. ) ;
#213 = ADVANCED_FACE ( 'NONE', ( #171 ), #220, .F. ) ;
#214 = EDGE_LOOP ( 'NONE', ( #62 ) ) ;
#215 = EDGE_LOOP ( 'NONE', ( #81 ) ) ;
#216 = DIRECTION ( 'NONE',  ( -3.491481338843133355E-15, 1.224646799147353207E-16, -1.000000000000000000 ) ) ;
#217 = AXIS2_PLACEMENT_3D ( 'NONE', #179, #60, #181 ) ;
#218 = APPLICATION_CONTEXT ( 'configuration controlled 3d designs of mechanical parts and assemblies' ) ;
#219 = CARTESIAN_POINT ( 'NONE',  ( 1.326762908760390423E-13, 0.7999999999999962697, 38.00000000000000000 ) ) ;
#220 = PLANE ( 'NONE',  #14 ) ;
#221 = CLOSED_SHELL ( 'NONE', ( #213, #114, #56, #113, #98 ) ) ;
#222 = VERTEX_POINT ( 'NONE', #154 ) ;
#223 = CARTESIAN_POINT ( 'NONE',  ( 1.326762908760390423E-13, -4.653657836759941941E-15, 38.00000000000000000 ) ) ;
ENDSEC;
END-ISO-10303-21;
