ISO-10303-21;
HEADER;
FILE_DESCRIPTION (( 'STEP AP203' ),
    '1' );
FILE_NAME ('55416.step',
    '2021-10-08T05:15:39',
    ( '' ),
    ( '' ),
    'SwSTEP 2.0',
    'SolidWorks 2019',
    '' );
FILE_SCHEMA (( 'CONFIG_CONTROL_DESIGN' ));
ENDSEC;

DATA;
#1 = CC_DESIGN_PERSON_AND_ORGANIZATION_ASSIGNMENT ( #125, #43, ( #128 ) ) ;
#2 = CARTESIAN_POINT ( 'NONE',  ( 4.298631221917752075E-14, 0.9999999999999954481, 12.31176914536240830 ) ) ;
#3 = VERTEX_POINT ( 'NONE', #60 ) ;
#4 = PERSON_AND_ORGANIZATION ( #120, #147 ) ;
#5 = CALENDAR_DATE ( 2021, 8, 10 ) ;
#6 = CC_DESIGN_DATE_AND_TIME_ASSIGNMENT ( #163, #164, ( #105 ) ) ;
#7 = DATE_AND_TIME ( #92, #19 ) ;
#8 = APPROVAL_ROLE ( '' ) ;
#9 = PRODUCT_RELATED_PRODUCT_CATEGORY ( 'detail', '', ( #126 ) ) ;
#10 = CLOSED_SHELL ( 'NONE', ( #61, #95, #52, #29, #195 ) ) ;
#11 = EDGE_LOOP ( 'NONE', ( #167 ) ) ;
#12 = EDGE_CURVE ( 'NONE', #222, #222, #161, .T. ) ;
#13 = ORIENTED_EDGE ( 'NONE', *, *, #133, .F. ) ;
#14 = DIRECTION ( 'NONE',  ( 0.0000000000000000000, -1.000000000000000000, 0.0000000000000000000 ) ) ;
#15 = CONICAL_SURFACE ( 'NONE', #151, 0.9999999999999970024, 0.5235987755982899339 ) ;
#16 = FACE_OUTER_BOUND ( 'NONE', #169, .T. ) ;
#17 = DIRECTION ( 'NONE',  ( 4.275831445896957731E-31, 1.000000000000000000, 1.224646799147353454E-16 ) ) ;
#18 = DIRECTION ( 'NONE',  ( 4.275831445896958607E-31, 1.000000000000000000, 1.224646799147353207E-16 ) ) ;
#19 = LOCAL_TIME ( 7, 15, 39.00000000000000000, #25 ) ;
#20 = DIRECTION ( 'NONE',  ( -4.275831445896958607E-31, -1.000000000000000000, -1.224646799147353207E-16 ) ) ;
#21 = PERSON_AND_ORGANIZATION_ROLE ( 'design_owner' ) ;
#22 = AXIS2_PLACEMENT_3D ( 'NONE', #82, #149, #190 ) ;
#23 = CALENDAR_DATE ( 2021, 8, 10 ) ;
#24 = DIRECTION ( 'NONE',  ( 1.000000000000000000, 0.0000000000000000000, 0.0000000000000000000 ) ) ;
#25 = COORDINATED_UNIVERSAL_TIME_OFFSET ( 1, 0, .AHEAD. ) ;
#26 = CIRCLE ( 'NONE', #77, 0.8199999999999949551 ) ;
#27 =( GEOMETRIC_REPRESENTATION_CONTEXT ( 3 ) GLOBAL_UNCERTAINTY_ASSIGNED_CONTEXT ( ( #30 ) ) GLOBAL_UNIT_ASSIGNED_CONTEXT ( ( #179, #210, #39 ) ) REPRESENTATION_CONTEXT ( 'NONE', 'WORKASPACE' ) );
#28 = EDGE_LOOP ( 'NONE', ( #63 ) ) ;
#29 = ADVANCED_FACE ( 'NONE', ( #34, #205 ), #217, .T. ) ;
#30 = UNCERTAINTY_MEASURE_WITH_UNIT (LENGTH_MEASURE( 1.000000000000000082E-05 ), #179, 'distance_accuracy_value', 'NONE');
#31 = EDGE_LOOP ( 'NONE', ( #148 ) ) ;
#32 = APPROVAL_PERSON_ORGANIZATION ( #83, #189, #8 ) ;
#33 = CARTESIAN_POINT ( 'NONE',  ( 1.326762908760390423E-13, -4.653657836759941941E-15, 38.00000000000000000 ) ) ;
#34 = FACE_OUTER_BOUND ( 'NONE', #130, .T. ) ;
#35 = DIRECTION ( 'NONE',  ( -4.697390108261587602E-31, -1.000000000000000000, -1.322197771323796237E-16 ) ) ;
#36 = CARTESIAN_POINT ( 'NONE',  ( 1.720272783635982519E-15, -6.033904677371570474E-17, 0.4927057076026009619 ) ) ;
#37 = PLANE ( 'NONE',  #112 ) ;
#38 = CARTESIAN_POINT ( 'NONE',  ( 0.0000000000000000000, 0.0000000000000000000, 0.0000000000000000000 ) ) ;
#39 =( NAMED_UNIT ( * ) SI_UNIT ( $, .STERADIAN. ) SOLID_ANGLE_UNIT ( ) );
#40 = PERSON_AND_ORGANIZATION_ROLE ( 'creator' ) ;
#41 = AXIS2_PLACEMENT_3D ( 'NONE', #178, #48, #20 ) ;
#42 = APPROVAL_PERSON_ORGANIZATION ( #91, #215, #137 ) ;
#43 = PERSON_AND_ORGANIZATION_ROLE ( 'creator' ) ;
#44 = PERSON_AND_ORGANIZATION_ROLE ( 'design_supplier' ) ;
#45 = CONICAL_SURFACE ( 'NONE', #58, 0.8199999999999936229, 1.029744258676649649 ) ;
#46 = CC_DESIGN_SECURITY_CLASSIFICATION ( #141, ( #128 ) ) ;
#47 = ORIENTED_EDGE ( 'NONE', *, *, #12, .T. ) ;
#48 = DIRECTION ( 'NONE',  ( 3.491481338843133355E-15, -1.224646799147353207E-16, 1.000000000000000000 ) ) ;
#49 = CARTESIAN_POINT ( 'NONE',  ( 4.189777606611760026E-14, -1.469576158976823947E-15, 12.00000000000000000 ) ) ;
#50 = CIRCLE ( 'NONE', #73, 0.8000000000000009326 ) ;
#51 = PLANE ( 'NONE',  #41 ) ;
#52 = ADVANCED_FACE ( 'NONE', ( #102, #16 ), #53, .T. ) ;
#53 = CYLINDRICAL_SURFACE ( 'NONE', #202, 0.9999999999999988898 ) ;
#54 = APPLICATION_PROTOCOL_DEFINITION ( 'international standard', 'config_control_design', 1994, #152 ) ;
#55 = CIRCLE ( 'NONE', #191, 0.9999999999999970024 ) ;
#56 = EDGE_CURVE ( 'NONE', #223, #223, #101, .T. ) ;
#57 = APPROVAL_DATE_TIME ( #212, #198 ) ;
#58 = AXIS2_PLACEMENT_3D ( 'NONE', #119, #155, #35 ) ;
#59 = LOCAL_TIME ( 7, 15, 39.00000000000000000, #213 ) ;
#60 = CARTESIAN_POINT ( 'NONE',  ( 1.720272783635982914E-15, 0.8199999999999935119, 0.4927057076026010174 ) ) ;
#61 = ADVANCED_FACE ( 'NONE', ( #174 ), #69, .F. ) ;
#62 = EDGE_LOOP ( 'NONE', ( #203 ) ) ;
#63 = ORIENTED_EDGE ( 'NONE', *, *, #145, .F. ) ;
#64 = ORIENTED_EDGE ( 'NONE', *, *, #133, .T. ) ;
#65 = CARTESIAN_POINT ( 'NONE',  ( 0.0000000000000000000, 0.0000000000000000000, 0.0000000000000000000 ) ) ;
#66 = DIRECTION ( 'NONE',  ( -3.491481338843133355E-15, 1.224646799147353207E-16, -1.000000000000000000 ) ) ;
#67 = MANIFOLD_SOLID_BREP ( 'Corps-Déplacer/Copier1[1]', #10 ) ;
#68 = CARTESIAN_POINT ( 'NONE',  ( 1.326762908760390423E-13, 5.999039130647367482E-33, 38.00000000000000000 ) ) ;
#69 = PLANE ( 'NONE',  #177 ) ;
#70 = CARTESIAN_POINT ( 'NONE',  ( 4.189777606611760026E-14, 0.8199999999999935119, 12.00000000000000000 ) ) ;
#71 = APPLICATION_CONTEXT ( 'configuration controlled 3d designs of mechanical parts and assemblies' ) ;
#72 = VERTEX_POINT ( 'NONE', #2 ) ;
#73 = AXIS2_PLACEMENT_3D ( 'NONE', #103, #196, #193 ) ;
#74 = APPROVAL_STATUS ( 'not_yet_approved' ) ;
#75 = PERSON_AND_ORGANIZATION ( #120, #147 ) ;
#76 = COORDINATED_UNIVERSAL_TIME_OFFSET ( 1, 0, .AHEAD. ) ;
#77 = AXIS2_PLACEMENT_3D ( 'NONE', #207, #66, #208 ) ;
#78 = DATE_TIME_ROLE ( 'classification_date' ) ;
#79 = ORIENTED_EDGE ( 'NONE', *, *, #12, .F. ) ;
#80 = AXIS2_PLACEMENT_3D ( 'NONE', #220, #176, #18 ) ;
#81 = EDGE_LOOP ( 'NONE', ( #214 ) ) ;
#82 = CARTESIAN_POINT ( 'NONE',  ( 1.319779946082704535E-13, -4.629164900776995227E-15, 37.79999999999999716 ) ) ;
#83 = PERSON_AND_ORGANIZATION ( #120, #147 ) ;
#84 = EDGE_LOOP ( 'NONE', ( #111 ) ) ;
#85 = CARTESIAN_POINT ( 'NONE',  ( 4.298631221917752075E-14, -1.507756867570921792E-15, 12.31176914536240830 ) ) ;
#86 = FACE_OUTER_BOUND ( 'NONE', #97, .T. ) ;
#87 = CARTESIAN_POINT ( 'NONE',  ( 4.298631221917752075E-14, -1.507756867570921792E-15, 12.31176914536240830 ) ) ;
#88 = CARTESIAN_POINT ( 'NONE',  ( 1.319779946082704535E-13, 0.9999999999999963363, 37.79999999999999716 ) ) ;
#89 = DIRECTION ( 'NONE',  ( 4.275831445896958607E-31, 1.000000000000000000, 1.224646799147353207E-16 ) ) ;
#90 = DIRECTION ( 'NONE',  ( 0.0000000000000000000, 0.0000000000000000000, 1.000000000000000000 ) ) ;
#91 = PERSON_AND_ORGANIZATION ( #120, #147 ) ;
#92 = CALENDAR_DATE ( 2021, 8, 10 ) ;
#93 = APPROVAL_PERSON_ORGANIZATION ( #75, #198, #138 ) ;
#94 = EDGE_LOOP ( 'NONE', ( #129 ) ) ;
#95 = ADVANCED_FACE ( 'NONE', ( #100, #86 ), #15, .T. ) ;
#96 = AXIS2_PLACEMENT_3D ( 'NONE', #36, #153, #175 ) ;
#97 = EDGE_LOOP ( 'NONE', ( #64 ) ) ;
#98 = DATE_AND_TIME ( #186, #192 ) ;
#99 = CC_DESIGN_PERSON_AND_ORGANIZATION_ASSIGNMENT ( #4, #40, ( #105 ) ) ;
#100 = FACE_BOUND ( 'NONE', #11, .T. ) ;
#101 = CIRCLE ( 'NONE', #156, 0.8199999999999949551 ) ;
#102 = FACE_OUTER_BOUND ( 'NONE', #171, .T. ) ;
#103 = CARTESIAN_POINT ( 'NONE',  ( 1.326762908760390423E-13, -4.653657836759941941E-15, 38.00000000000000000 ) ) ;
#104 = ADVANCED_BREP_SHAPE_REPRESENTATION ( '55416', ( #67, #142, #162 ), #27 ) ;
#105 = PRODUCT_DEFINITION ( 'UNKNOWN', '', #128, #185 ) ;
#106 = FACE_OUTER_BOUND ( 'NONE', #31, .T. ) ;
#107 = FACE_OUTER_BOUND ( 'NONE', #94, .T. ) ;
#108 = COORDINATED_UNIVERSAL_TIME_OFFSET ( 1, 0, .AHEAD. ) ;
#109 = EDGE_CURVE ( 'NONE', #136, #136, #26, .T. ) ;
#110 = PERSON_AND_ORGANIZATION ( #120, #147 ) ;
#111 = ORIENTED_EDGE ( 'NONE', *, *, #145, .T. ) ;
#112 = AXIS2_PLACEMENT_3D ( 'NONE', #68, #218, #89 ) ;
#113 = APPROVAL_STATUS ( 'not_yet_approved' ) ;
#114 = DIRECTION ( 'NONE',  ( -3.491481338843133355E-15, 1.224646799147353207E-16, -1.000000000000000000 ) ) ;
#115 = DIRECTION ( 'NONE',  ( 3.491481338843133355E-15, -1.224646799147353207E-16, 1.000000000000000000 ) ) ;
#116 = LOCAL_TIME ( 7, 15, 39.00000000000000000, #76 ) ;
#117 = DIRECTION ( 'NONE',  ( 0.0000000000000000000, 1.000000000000000000, 0.0000000000000000000 ) ) ;
#118 = CC_DESIGN_PERSON_AND_ORGANIZATION_ASSIGNMENT ( #201, #44, ( #128 ) ) ;
#119 = CARTESIAN_POINT ( 'NONE',  ( 1.720272783635982519E-15, -6.033904677371570474E-17, 0.4927057076026009619 ) ) ;
#120 = PERSON ( 'UNSPECIFIED', 'UNSPECIFIED', 'UNSPECIFIED', ('UNSPECIFIED'), ('UNSPECIFIED'), ('UNSPECIFIED') ) ;
#121 = DIRECTION ( 'NONE',  ( -3.491481338843133355E-15, 1.224646799147353207E-16, -1.000000000000000000 ) ) ;
#122 = SECURITY_CLASSIFICATION_LEVEL ( 'unclassified' ) ;
#123 = AXIS2_PLACEMENT_3D ( 'NONE', #33, #114, #134 ) ;
#124 = APPLICATION_PROTOCOL_DEFINITION ( 'international standard', 'config_control_design', 1994, #71 ) ;
#125 = PERSON_AND_ORGANIZATION ( #120, #147 ) ;
#126 = PRODUCT ( '55416', '55416', '', ( #211 ) ) ;
#127 = SHAPE_DEFINITION_REPRESENTATION ( #144, #104 ) ;
#128 = PRODUCT_DEFINITION_FORMATION_WITH_SPECIFIED_SOURCE ( 'ANY', '', #126, .NOT_KNOWN. ) ;
#129 = ORIENTED_EDGE ( 'NONE', *, *, #150, .T. ) ;
#130 = EDGE_LOOP ( 'NONE', ( #79 ) ) ;
#131 = CYLINDRICAL_SURFACE ( 'NONE', #80, 0.8199999999999942890 ) ;
#132 = DIRECTION ( 'NONE',  ( -3.491481338843133355E-15, 1.224646799147353207E-16, -1.000000000000000000 ) ) ;
#133 = EDGE_CURVE ( 'NONE', #72, #72, #55, .T. ) ;
#134 = DIRECTION ( 'NONE',  ( 0.0000000000000000000, 1.000000000000000000, 0.0000000000000000000 ) ) ;
#135 = ADVANCED_FACE ( 'NONE', ( #154 ), #51, .T. ) ;
#136 = VERTEX_POINT ( 'NONE', #209 ) ;
#137 = APPROVAL_ROLE ( '' ) ;
#138 = APPROVAL_ROLE ( '' ) ;
#139 = ADVANCED_FACE ( 'NONE', ( #107 ), #45, .T. ) ;
#140 = DATE_AND_TIME ( #5, #116 ) ;
#141 = SECURITY_CLASSIFICATION ( '', '', #122 ) ;
#142 = MANIFOLD_SOLID_BREP ( 'Corps-Déplacer/Copier1[2]', #204 ) ;
#143 = CALENDAR_DATE ( 2021, 8, 10 ) ;
#144 = PRODUCT_DEFINITION_SHAPE ( 'NONE', 'NONE',  #105 ) ;
#145 = EDGE_CURVE ( 'NONE', #197, #197, #50, .T. ) ;
#146 = COORDINATED_UNIVERSAL_TIME_OFFSET ( 1, 0, .AHEAD. ) ;
#147 = ORGANIZATION ( 'UNSPECIFIED', 'UNSPECIFIED', '' ) ;
#148 = ORIENTED_EDGE ( 'NONE', *, *, #109, .T. ) ;
#149 = DIRECTION ( 'NONE',  ( -3.491481338843133355E-15, 1.224646799147353207E-16, -1.000000000000000000 ) ) ;
#150 = EDGE_CURVE ( 'NONE', #3, #3, #173, .T. ) ;
#151 = AXIS2_PLACEMENT_3D ( 'NONE', #87, #115, #14 ) ;
#152 = APPLICATION_CONTEXT ( 'configuration controlled 3d designs of mechanical parts and assemblies' ) ;
#153 = DIRECTION ( 'NONE',  ( -3.491481338843133355E-15, 1.224646799147353207E-16, -1.000000000000000000 ) ) ;
#154 = FACE_OUTER_BOUND ( 'NONE', #62, .T. ) ;
#155 = DIRECTION ( 'NONE',  ( 3.491481338843133355E-15, -1.224646799147353207E-16, 1.000000000000000000 ) ) ;
#156 = AXIS2_PLACEMENT_3D ( 'NONE', #49, #132, #157 ) ;
#157 = DIRECTION ( 'NONE',  ( 0.0000000000000000000, 1.000000000000000000, 0.0000000000000000000 ) ) ;
#158 = CC_DESIGN_PERSON_AND_ORGANIZATION_ASSIGNMENT ( #180, #21, ( #126 ) ) ;
#159 = FACE_OUTER_BOUND ( 'NONE', #81, .T. ) ;
#160 = CARTESIAN_POINT ( 'NONE',  ( 1.326762908760390423E-13, 0.7999999999999962697, 38.00000000000000000 ) ) ;
#161 = CIRCLE ( 'NONE', #22, 1.000000000000000888 ) ;
#162 = AXIS2_PLACEMENT_3D ( 'NONE', #38, #90, #24 ) ;
#163 = DATE_AND_TIME ( #23, #59 ) ;
#164 = DATE_TIME_ROLE ( 'creation_date' ) ;
#165 = APPROVAL_STATUS ( 'not_yet_approved' ) ;
#166 = CC_DESIGN_APPROVAL ( #189, ( #141 ) ) ;
#167 = ORIENTED_EDGE ( 'NONE', *, *, #56, .F. ) ;
#168 = APPROVAL_DATE_TIME ( #98, #189 ) ;
#169 = EDGE_LOOP ( 'NONE', ( #47 ) ) ;
#170 = CC_DESIGN_DATE_AND_TIME_ASSIGNMENT ( #7, #78, ( #141 ) ) ;
#171 = EDGE_LOOP ( 'NONE', ( #13 ) ) ;
#172 = DIRECTION ( 'NONE',  ( 3.491481338843133355E-15, -1.224646799147353207E-16, 1.000000000000000000 ) ) ;
#173 = CIRCLE ( 'NONE', #96, 0.8199999999999936229 ) ;
#174 = FACE_OUTER_BOUND ( 'NONE', #216, .T. ) ;
#175 = DIRECTION ( 'NONE',  ( 4.697390108261587602E-31, 1.000000000000000000, 1.322197771323796237E-16 ) ) ;
#176 = DIRECTION ( 'NONE',  ( -3.491481338843133355E-15, 1.224646799147353207E-16, -1.000000000000000000 ) ) ;
#177 = AXIS2_PLACEMENT_3D ( 'NONE', #219, #172, #188 ) ;
#178 = CARTESIAN_POINT ( 'NONE',  ( 4.189777606611760026E-14, 6.149015108913556391E-33, 12.00000000000000000 ) ) ;
#179 =( LENGTH_UNIT ( ) NAMED_UNIT ( * ) SI_UNIT ( .MILLI., .METRE. ) );
#180 = PERSON_AND_ORGANIZATION ( #120, #147 ) ;
#181 = LOCAL_TIME ( 7, 15, 39.00000000000000000, #108 ) ;
#182 = PERSON_AND_ORGANIZATION_ROLE ( 'classification_officer' ) ;
#183 = CC_DESIGN_PERSON_AND_ORGANIZATION_ASSIGNMENT ( #110, #182, ( #141 ) ) ;
#184 = CC_DESIGN_APPROVAL ( #198, ( #128 ) ) ;
#185 = DESIGN_CONTEXT ( 'detailed design', #152, 'design' ) ;
#186 = CALENDAR_DATE ( 2021, 8, 10 ) ;
#187 = ORIENTED_EDGE ( 'NONE', *, *, #56, .T. ) ;
#188 = DIRECTION ( 'NONE',  ( -4.275831445896958607E-31, -1.000000000000000000, -1.224646799147353207E-16 ) ) ;
#189 = APPROVAL ( #113, 'UNSPECIFIED' ) ;
#190 = DIRECTION ( 'NONE',  ( 0.0000000000000000000, 1.000000000000000000, 0.0000000000000000000 ) ) ;
#191 = AXIS2_PLACEMENT_3D ( 'NONE', #85, #206, #117 ) ;
#192 = LOCAL_TIME ( 7, 15, 39.00000000000000000, #146 ) ;
#193 = DIRECTION ( 'NONE',  ( 0.0000000000000000000, 1.000000000000000000, 0.0000000000000000000 ) ) ;
#194 = FACE_OUTER_BOUND ( 'NONE', #28, .T. ) ;
#195 = ADVANCED_FACE ( 'NONE', ( #194 ), #37, .F. ) ;
#196 = DIRECTION ( 'NONE',  ( -3.491481338843133355E-15, 1.224646799147353207E-16, -1.000000000000000000 ) ) ;
#197 = VERTEX_POINT ( 'NONE', #160 ) ;
#198 = APPROVAL ( #165, 'UNSPECIFIED' ) ;
#199 = APPROVAL_DATE_TIME ( #140, #215 ) ;
#200 = ADVANCED_FACE ( 'NONE', ( #159, #106 ), #131, .T. ) ;
#201 = PERSON_AND_ORGANIZATION ( #120, #147 ) ;
#202 = AXIS2_PLACEMENT_3D ( 'NONE', #65, #121, #17 ) ;
#203 = ORIENTED_EDGE ( 'NONE', *, *, #109, .F. ) ;
#204 = CLOSED_SHELL ( 'NONE', ( #139, #200, #135 ) ) ;
#205 = FACE_BOUND ( 'NONE', #84, .T. ) ;
#206 = DIRECTION ( 'NONE',  ( -3.491481338843133355E-15, 1.224646799147353207E-16, -1.000000000000000000 ) ) ;
#207 = CARTESIAN_POINT ( 'NONE',  ( 4.189777606611760026E-14, -1.469576158976823947E-15, 12.00000000000000000 ) ) ;
#208 = DIRECTION ( 'NONE',  ( 0.0000000000000000000, 1.000000000000000000, 0.0000000000000000000 ) ) ;
#209 = CARTESIAN_POINT ( 'NONE',  ( 4.189777606611760026E-14, 0.8199999999999935119, 12.00000000000000000 ) ) ;
#210 =( NAMED_UNIT ( * ) PLANE_ANGLE_UNIT ( ) SI_UNIT ( $, .RADIAN. ) );
#211 = MECHANICAL_CONTEXT ( 'NONE', #71, 'mechanical' ) ;
#212 = DATE_AND_TIME ( #143, #181 ) ;
#213 = COORDINATED_UNIVERSAL_TIME_OFFSET ( 1, 0, .AHEAD. ) ;
#214 = ORIENTED_EDGE ( 'NONE', *, *, #150, .F. ) ;
#215 = APPROVAL ( #74, 'UNSPECIFIED' ) ;
#216 = EDGE_LOOP ( 'NONE', ( #187 ) ) ;
#217 = CONICAL_SURFACE ( 'NONE', #123, 0.8000000000000009326, 0.7853981633974512766 ) ;
#218 = DIRECTION ( 'NONE',  ( -3.491481338843133355E-15, 1.224646799147353207E-16, -1.000000000000000000 ) ) ;
#219 = CARTESIAN_POINT ( 'NONE',  ( 4.189777606611760026E-14, 6.149015108913556391E-33, 12.00000000000000000 ) ) ;
#220 = CARTESIAN_POINT ( 'NONE',  ( 0.0000000000000000000, 0.0000000000000000000, 0.0000000000000000000 ) ) ;
#221 = CC_DESIGN_APPROVAL ( #215, ( #105 ) ) ;
#222 = VERTEX_POINT ( 'NONE', #88 ) ;
#223 = VERTEX_POINT ( 'NONE', #70 ) ;
ENDSEC;
END-ISO-10303-21;
