ISO-10303-21;
HEADER;
FILE_DESCRIPTION (( 'STEP AP203' ),
    '1' );
FILE_NAME ('55415.step',
    '2021-10-08T05:15:38',
    ( '' ),
    ( '' ),
    'SwSTEP 2.0',
    'SolidWorks 2019',
    '' );
FILE_SCHEMA (( 'CONFIG_CONTROL_DESIGN' ));
ENDSEC;

DATA;
#1 = DIRECTION ( 'NONE',  ( -3.491481338843133355E-15, 1.224646799147353207E-16, -1.000000000000000000 ) ) ;
#2 = CC_DESIGN_DATE_AND_TIME_ASSIGNMENT ( #59, #166, ( #88 ) ) ;
#3 = DIRECTION ( 'NONE',  ( 3.491481338843133355E-15, -1.224646799147353207E-16, 1.000000000000000000 ) ) ;
#4 = PERSON_AND_ORGANIZATION_ROLE ( 'classification_officer' ) ;
#5 = DATE_AND_TIME ( #205, #96 ) ;
#6 = AXIS2_PLACEMENT_3D ( 'NONE', #208, #108, #169 ) ;
#7 = LOCAL_TIME ( 7, 15, 38.00000000000000000, #30 ) ;
#8 = APPROVAL ( #80, 'UNSPECIFIED' ) ;
#9 = DIRECTION ( 'NONE',  ( -3.491481338843133355E-15, 1.224646799147353207E-16, -1.000000000000000000 ) ) ;
#10 = AXIS2_PLACEMENT_3D ( 'NONE', #85, #203, #70 ) ;
#11 = ADVANCED_FACE ( 'NONE', ( #73 ), #24, .T. ) ;
#12 = CALENDAR_DATE ( 2021, 8, 10 ) ;
#13 = ADVANCED_FACE ( 'NONE', ( #66, #116 ), #37, .T. ) ;
#14 = ORIENTED_EDGE ( 'NONE', *, *, #29, .F. ) ;
#15 = CARTESIAN_POINT ( 'NONE',  ( 1.709783315443079842E-15, -5.997112575680277967E-17, 0.4897014045074630784 ) ) ;
#16 = EDGE_LOOP ( 'NONE', ( #97 ) ) ;
#17 = FACE_OUTER_BOUND ( 'NONE', #159, .T. ) ;
#18 = CIRCLE ( 'NONE', #43, 0.8149999999999936184 ) ;
#19 = CARTESIAN_POINT ( 'NONE',  ( 0.0000000000000000000, 0.0000000000000000000, 0.0000000000000000000 ) ) ;
#20 = PRODUCT_RELATED_PRODUCT_CATEGORY ( 'detail', '', ( #125 ) ) ;
#21 = COORDINATED_UNIVERSAL_TIME_OFFSET ( 1, 0, .AHEAD. ) ;
#22 = APPROVAL_ROLE ( '' ) ;
#23 = AXIS2_PLACEMENT_3D ( 'NONE', #50, #217, #68 ) ;
#24 = PLANE ( 'NONE',  #78 ) ;
#25 = CONICAL_SURFACE ( 'NONE', #6, 0.8000000000000009326, 0.7853981633974512766 ) ;
#26 = EDGE_LOOP ( 'NONE', ( #94 ) ) ;
#27 = SECURITY_CLASSIFICATION ( '', '', #188 ) ;
#28 = FACE_OUTER_BOUND ( 'NONE', #16, .T. ) ;
#29 = EDGE_CURVE ( 'NONE', #67, #67, #182, .T. ) ;
#30 = COORDINATED_UNIVERSAL_TIME_OFFSET ( 1, 0, .AHEAD. ) ;
#31 = ORIENTED_EDGE ( 'NONE', *, *, #190, .F. ) ;
#32 = ORIENTED_EDGE ( 'NONE', *, *, #99, .F. ) ;
#33 = PERSON_AND_ORGANIZATION ( #38, #72 ) ;
#34 = CARTESIAN_POINT ( 'NONE',  ( 4.189777606611760026E-14, 6.111521114347011045E-33, 12.00000000000000000 ) ) ;
#35 = EDGE_LOOP ( 'NONE', ( #32 ) ) ;
#36 = DIRECTION ( 'NONE',  ( 1.000000000000000000, 0.0000000000000000000, 0.0000000000000000000 ) ) ;
#37 = CONICAL_SURFACE ( 'NONE', #124, 0.9999999999999970024, 0.5235987755982932645 ) ;
#38 = PERSON ( 'UNSPECIFIED', 'UNSPECIFIED', 'UNSPECIFIED', ('UNSPECIFIED'), ('UNSPECIFIED'), ('UNSPECIFIED') ) ;
#39 = PERSON_AND_ORGANIZATION ( #38, #72 ) ;
#40 = DATE_AND_TIME ( #107, #129 ) ;
#41 = CC_DESIGN_PERSON_AND_ORGANIZATION_ASSIGNMENT ( #120, #195, ( #125 ) ) ;
#42 = PERSON_AND_ORGANIZATION ( #38, #72 ) ;
#43 = AXIS2_PLACEMENT_3D ( 'NONE', #15, #164, #199 ) ;
#44 = ORIENTED_EDGE ( 'NONE', *, *, #210, .F. ) ;
#45 = PLANE ( 'NONE',  #101 ) ;
#46 = ADVANCED_FACE ( 'NONE', ( #191 ), #45, .F. ) ;
#47 = EDGE_CURVE ( 'NONE', #181, #181, #49, .T. ) ;
#48 = APPROVAL_ROLE ( '' ) ;
#49 = CIRCLE ( 'NONE', #75, 1.000000000000000888 ) ;
#50 = CARTESIAN_POINT ( 'NONE',  ( 0.0000000000000000000, 0.0000000000000000000, 0.0000000000000000000 ) ) ;
#51 = DIRECTION ( 'NONE',  ( 0.0000000000000000000, 1.000000000000000000, 0.0000000000000000000 ) ) ;
#52 = CC_DESIGN_PERSON_AND_ORGANIZATION_ASSIGNMENT ( #153, #150, ( #157 ) ) ;
#53 = FACE_OUTER_BOUND ( 'NONE', #35, .T. ) ;
#54 = ORIENTED_EDGE ( 'NONE', *, *, #29, .T. ) ;
#55 = CC_DESIGN_APPROVAL ( #121, ( #157 ) ) ;
#56 = APPROVAL_ROLE ( '' ) ;
#57 = APPLICATION_CONTEXT ( 'configuration controlled 3d designs of mechanical parts and assemblies' ) ;
#58 = CARTESIAN_POINT ( 'NONE',  ( 1.709783315443079842E-15, -5.997112575680277967E-17, 0.4897014045074630784 ) ) ;
#59 = DATE_AND_TIME ( #134, #160 ) ;
#60 = ORIENTED_EDGE ( 'NONE', *, *, #210, .T. ) ;
#61 = AXIS2_PLACEMENT_3D ( 'NONE', #113, #1, #180 ) ;
#62 = EDGE_LOOP ( 'NONE', ( #146 ) ) ;
#63 = EDGE_CURVE ( 'NONE', #130, #130, #192, .T. ) ;
#64 = DIRECTION ( 'NONE',  ( 4.275831445896957731E-31, 1.000000000000000000, 1.224646799147353454E-16 ) ) ;
#65 = CARTESIAN_POINT ( 'NONE',  ( 4.189777606611760026E-14, -1.469576158976823947E-15, 12.00000000000000000 ) ) ;
#66 = FACE_BOUND ( 'NONE', #194, .T. ) ;
#67 = VERTEX_POINT ( 'NONE', #222 ) ;
#68 = DIRECTION ( 'NONE',  ( 4.275831445896958607E-31, 1.000000000000000000, 1.224646799147353454E-16 ) ) ;
#69 = VERTEX_POINT ( 'NONE', #86 ) ;
#70 = DIRECTION ( 'NONE',  ( 0.0000000000000000000, 1.000000000000000000, 0.0000000000000000000 ) ) ;
#71 = CLOSED_SHELL ( 'NONE', ( #152, #13, #193, #77, #46 ) ) ;
#72 = ORGANIZATION ( 'UNSPECIFIED', 'UNSPECIFIED', '' ) ;
#73 = FACE_OUTER_BOUND ( 'NONE', #119, .T. ) ;
#74 = DIRECTION ( 'NONE',  ( -4.275831445896958607E-31, -1.000000000000000000, -1.224646799147353207E-16 ) ) ;
#75 = AXIS2_PLACEMENT_3D ( 'NONE', #147, #173, #211 ) ;
#76 = EDGE_LOOP ( 'NONE', ( #178 ) ) ;
#77 = ADVANCED_FACE ( 'NONE', ( #131, #165 ), #25, .T. ) ;
#78 = AXIS2_PLACEMENT_3D ( 'NONE', #95, #127, #89 ) ;
#79 = VERTEX_POINT ( 'NONE', #202 ) ;
#80 = APPROVAL_STATUS ( 'not_yet_approved' ) ;
#81 = DIRECTION ( 'NONE',  ( 3.491481338843133355E-15, -1.224646799147353207E-16, 1.000000000000000000 ) ) ;
#82 = AXIS2_PLACEMENT_3D ( 'NONE', #58, #218, #128 ) ;
#83 = EDGE_LOOP ( 'NONE', ( #221 ) ) ;
#84 = AXIS2_PLACEMENT_3D ( 'NONE', #19, #104, #64 ) ;
#85 = CARTESIAN_POINT ( 'NONE',  ( 4.189777606611760026E-14, -1.469576158976823947E-15, 12.00000000000000000 ) ) ;
#86 = CARTESIAN_POINT ( 'NONE',  ( 1.709783315443080236E-15, 0.8149999999999935074, 0.4897014045074631894 ) ) ;
#87 = PERSON_AND_ORGANIZATION_ROLE ( 'creator' ) ;
#88 = PRODUCT_DEFINITION ( 'UNKNOWN', '', #157, #213 ) ;
#89 = DIRECTION ( 'NONE',  ( -4.275831445896958607E-31, -1.000000000000000000, -1.224646799147353207E-16 ) ) ;
#90 = COORDINATED_UNIVERSAL_TIME_OFFSET ( 1, 0, .AHEAD. ) ;
#91 = CARTESIAN_POINT ( 'NONE',  ( 1.326762908760390423E-13, 5.999039130647367482E-33, 38.00000000000000000 ) ) ;
#92 = PLANE ( 'NONE',  #111 ) ;
#93 = FACE_OUTER_BOUND ( 'NONE', #62, .T. ) ;
#94 = ORIENTED_EDGE ( 'NONE', *, *, #47, .F. ) ;
#95 = CARTESIAN_POINT ( 'NONE',  ( 4.189777606611760026E-14, 6.111521114347011045E-33, 12.00000000000000000 ) ) ;
#96 = LOCAL_TIME ( 7, 15, 38.00000000000000000, #21 ) ;
#97 = ORIENTED_EDGE ( 'NONE', *, *, #47, .T. ) ;
#98 = DATE_AND_TIME ( #12, #7 ) ;
#99 = EDGE_CURVE ( 'NONE', #196, #196, #204, .T. ) ;
#100 = MECHANICAL_CONTEXT ( 'NONE', #177, 'mechanical' ) ;
#101 = AXIS2_PLACEMENT_3D ( 'NONE', #91, #207, #215 ) ;
#102 = EDGE_LOOP ( 'NONE', ( #200 ) ) ;
#103 = AXIS2_PLACEMENT_3D ( 'NONE', #163, #223, #36 ) ;
#104 = DIRECTION ( 'NONE',  ( -3.491481338843133355E-15, 1.224646799147353207E-16, -1.000000000000000000 ) ) ;
#105 = CALENDAR_DATE ( 2021, 8, 10 ) ;
#106 = CC_DESIGN_SECURITY_CLASSIFICATION ( #27, ( #157 ) ) ;
#107 = CALENDAR_DATE ( 2021, 8, 10 ) ;
#108 = DIRECTION ( 'NONE',  ( -3.491481338843133355E-15, 1.224646799147353207E-16, -1.000000000000000000 ) ) ;
#109 = COORDINATED_UNIVERSAL_TIME_OFFSET ( 1, 0, .AHEAD. ) ;
#110 = APPROVAL_STATUS ( 'not_yet_approved' ) ;
#111 = AXIS2_PLACEMENT_3D ( 'NONE', #34, #81, #74 ) ;
#112 = CC_DESIGN_PERSON_AND_ORGANIZATION_ASSIGNMENT ( #42, #87, ( #157 ) ) ;
#113 = CARTESIAN_POINT ( 'NONE',  ( 1.326762908760390423E-13, -4.653657836759941941E-15, 38.00000000000000000 ) ) ;
#114 = CARTESIAN_POINT ( 'NONE',  ( 1.326762908760390423E-13, 0.7999999999999962697, 38.00000000000000000 ) ) ;
#115 = CLOSED_SHELL ( 'NONE', ( #156, #158, #11 ) ) ;
#116 = FACE_OUTER_BOUND ( 'NONE', #83, .T. ) ;
#117 = CC_DESIGN_APPROVAL ( #8, ( #88 ) ) ;
#118 = CC_DESIGN_DATE_AND_TIME_ASSIGNMENT ( #40, #168, ( #27 ) ) ;
#119 = EDGE_LOOP ( 'NONE', ( #44 ) ) ;
#120 = PERSON_AND_ORGANIZATION ( #38, #72 ) ;
#121 = APPROVAL ( #110, 'UNSPECIFIED' ) ;
#122 =( NAMED_UNIT ( * ) PLANE_ANGLE_UNIT ( ) SI_UNIT ( $, .RADIAN. ) );
#123 = SHAPE_DEFINITION_REPRESENTATION ( #135, #220 ) ;
#124 = AXIS2_PLACEMENT_3D ( 'NONE', #183, #3, #137 ) ;
#125 = PRODUCT ( '55415', '55415', '', ( #100 ) ) ;
#126 = PERSON_AND_ORGANIZATION_ROLE ( 'creator' ) ;
#127 = DIRECTION ( 'NONE',  ( 3.491481338843133355E-15, -1.224646799147353207E-16, 1.000000000000000000 ) ) ;
#128 = DIRECTION ( 'NONE',  ( -4.726208452484051341E-31, -1.000000000000000000, -1.330309414092653886E-16 ) ) ;
#129 = LOCAL_TIME ( 7, 15, 38.00000000000000000, #90 ) ;
#130 = VERTEX_POINT ( 'NONE', #114 ) ;
#131 = FACE_OUTER_BOUND ( 'NONE', #26, .T. ) ;
#132 = MANIFOLD_SOLID_BREP ( 'Corps-Déplacer/Copier1[1]', #71 ) ;
#133 = CYLINDRICAL_SURFACE ( 'NONE', #23, 0.8149999999999942846 ) ;
#134 = CALENDAR_DATE ( 2021, 8, 10 ) ;
#135 = PRODUCT_DEFINITION_SHAPE ( 'NONE', 'NONE',  #88 ) ;
#136 = APPROVAL_DATE_TIME ( #5, #142 ) ;
#137 = DIRECTION ( 'NONE',  ( 0.0000000000000000000, -1.000000000000000000, 0.0000000000000000000 ) ) ;
#138 = AXIS2_PLACEMENT_3D ( 'NONE', #65, #161, #51 ) ;
#139 = APPROVAL_PERSON_ORGANIZATION ( #154, #142, #22 ) ;
#140 = CIRCLE ( 'NONE', #10, 0.8149999999999951728 ) ;
#141 = CARTESIAN_POINT ( 'NONE',  ( 1.319779946082704535E-13, 0.9999999999999963363, 37.79999999999999716 ) ) ;
#142 = APPROVAL ( #206, 'UNSPECIFIED' ) ;
#143 = PERSON_AND_ORGANIZATION ( #38, #72 ) ;
#144 = APPROVAL_DATE_TIME ( #98, #8 ) ;
#145 = AXIS2_PLACEMENT_3D ( 'NONE', #155, #9, #189 ) ;
#146 = ORIENTED_EDGE ( 'NONE', *, *, #190, .T. ) ;
#147 = CARTESIAN_POINT ( 'NONE',  ( 1.319779946082704535E-13, -4.629164900776995227E-15, 37.79999999999999716 ) ) ;
#148 = APPLICATION_PROTOCOL_DEFINITION ( 'international standard', 'config_control_design', 1994, #177 ) ;
#149 =( LENGTH_UNIT ( ) NAMED_UNIT ( * ) SI_UNIT ( .MILLI., .METRE. ) );
#150 = PERSON_AND_ORGANIZATION_ROLE ( 'design_supplier' ) ;
#151 = COORDINATED_UNIVERSAL_TIME_OFFSET ( 1, 0, .AHEAD. ) ;
#152 = ADVANCED_FACE ( 'NONE', ( #167 ), #92, .F. ) ;
#153 = PERSON_AND_ORGANIZATION ( #38, #72 ) ;
#154 = PERSON_AND_ORGANIZATION ( #38, #72 ) ;
#155 = CARTESIAN_POINT ( 'NONE',  ( 4.301654933454028317E-14, -1.508817442809646442E-15, 12.32042939940025050 ) ) ;
#156 = ADVANCED_FACE ( 'NONE', ( #93 ), #174, .T. ) ;
#157 = PRODUCT_DEFINITION_FORMATION_WITH_SPECIFIED_SOURCE ( 'ANY', '', #125, .NOT_KNOWN. ) ;
#158 = ADVANCED_FACE ( 'NONE', ( #171, #17 ), #133, .T. ) ;
#159 = EDGE_LOOP ( 'NONE', ( #60 ) ) ;
#160 = LOCAL_TIME ( 7, 15, 38.00000000000000000, #109 ) ;
#161 = DIRECTION ( 'NONE',  ( -3.491481338843133355E-15, 1.224646799147353207E-16, -1.000000000000000000 ) ) ;
#162 =( NAMED_UNIT ( * ) SI_UNIT ( $, .STERADIAN. ) SOLID_ANGLE_UNIT ( ) );
#163 = CARTESIAN_POINT ( 'NONE',  ( 0.0000000000000000000, 0.0000000000000000000, 0.0000000000000000000 ) ) ;
#164 = DIRECTION ( 'NONE',  ( -3.491481338843133355E-15, 1.224646799147353207E-16, -1.000000000000000000 ) ) ;
#165 = FACE_BOUND ( 'NONE', #76, .T. ) ;
#166 = DATE_TIME_ROLE ( 'creation_date' ) ;
#167 = FACE_OUTER_BOUND ( 'NONE', #212, .T. ) ;
#168 = DATE_TIME_ROLE ( 'classification_date' ) ;
#169 = DIRECTION ( 'NONE',  ( 0.0000000000000000000, 1.000000000000000000, 0.0000000000000000000 ) ) ;
#170 = CC_DESIGN_APPROVAL ( #142, ( #27 ) ) ;
#171 = FACE_OUTER_BOUND ( 'NONE', #198, .T. ) ;
#172 = UNCERTAINTY_MEASURE_WITH_UNIT (LENGTH_MEASURE( 1.000000000000000082E-05 ), #149, 'distance_accuracy_value', 'NONE');
#173 = DIRECTION ( 'NONE',  ( -3.491481338843133355E-15, 1.224646799147353207E-16, -1.000000000000000000 ) ) ;
#174 = CONICAL_SURFACE ( 'NONE', #82, 0.8149999999999936184, 1.029744258676649871 ) ;
#175 =( GEOMETRIC_REPRESENTATION_CONTEXT ( 3 ) GLOBAL_UNCERTAINTY_ASSIGNED_CONTEXT ( ( #172 ) ) GLOBAL_UNIT_ASSIGNED_CONTEXT ( ( #149, #122, #162 ) ) REPRESENTATION_CONTEXT ( 'NONE', 'WORKASPACE' ) );
#176 = CARTESIAN_POINT ( 'NONE',  ( 4.301654933454028317E-14, 0.9999999999999954481, 12.32042939940025050 ) ) ;
#177 = APPLICATION_CONTEXT ( 'configuration controlled 3d designs of mechanical parts and assemblies' ) ;
#178 = ORIENTED_EDGE ( 'NONE', *, *, #63, .T. ) ;
#179 = APPLICATION_PROTOCOL_DEFINITION ( 'international standard', 'config_control_design', 1994, #57 ) ;
#180 = DIRECTION ( 'NONE',  ( 0.0000000000000000000, 1.000000000000000000, 0.0000000000000000000 ) ) ;
#181 = VERTEX_POINT ( 'NONE', #141 ) ;
#182 = CIRCLE ( 'NONE', #138, 0.8149999999999951728 ) ;
#183 = CARTESIAN_POINT ( 'NONE',  ( 4.301654933454028317E-14, -1.508817442809646442E-15, 12.32042939940025050 ) ) ;
#184 = APPROVAL_DATE_TIME ( #186, #121 ) ;
#185 = CC_DESIGN_PERSON_AND_ORGANIZATION_ASSIGNMENT ( #39, #4, ( #27 ) ) ;
#186 = DATE_AND_TIME ( #105, #214 ) ;
#187 = CC_DESIGN_PERSON_AND_ORGANIZATION_ASSIGNMENT ( #143, #126, ( #88 ) ) ;
#188 = SECURITY_CLASSIFICATION_LEVEL ( 'unclassified' ) ;
#189 = DIRECTION ( 'NONE',  ( 0.0000000000000000000, 1.000000000000000000, 0.0000000000000000000 ) ) ;
#190 = EDGE_CURVE ( 'NONE', #69, #69, #18, .T. ) ;
#191 = FACE_OUTER_BOUND ( 'NONE', #102, .T. ) ;
#192 = CIRCLE ( 'NONE', #61, 0.8000000000000009326 ) ;
#193 = ADVANCED_FACE ( 'NONE', ( #53, #28 ), #216, .T. ) ;
#194 = EDGE_LOOP ( 'NONE', ( #14 ) ) ;
#195 = PERSON_AND_ORGANIZATION_ROLE ( 'design_owner' ) ;
#196 = VERTEX_POINT ( 'NONE', #176 ) ;
#197 = APPROVAL_PERSON_ORGANIZATION ( #209, #121, #56 ) ;
#198 = EDGE_LOOP ( 'NONE', ( #31 ) ) ;
#199 = DIRECTION ( 'NONE',  ( 4.726208452484051341E-31, 1.000000000000000000, 1.330309414092653886E-16 ) ) ;
#200 = ORIENTED_EDGE ( 'NONE', *, *, #63, .F. ) ;
#201 = MANIFOLD_SOLID_BREP ( 'Corps-Déplacer/Copier1[2]', #115 ) ;
#202 = CARTESIAN_POINT ( 'NONE',  ( 4.189777606611760026E-14, 0.8149999999999937295, 12.00000000000000000 ) ) ;
#203 = DIRECTION ( 'NONE',  ( -3.491481338843133355E-15, 1.224646799147353207E-16, -1.000000000000000000 ) ) ;
#204 = CIRCLE ( 'NONE', #145, 0.9999999999999970024 ) ;
#205 = CALENDAR_DATE ( 2021, 8, 10 ) ;
#206 = APPROVAL_STATUS ( 'not_yet_approved' ) ;
#207 = DIRECTION ( 'NONE',  ( -3.491481338843133355E-15, 1.224646799147353207E-16, -1.000000000000000000 ) ) ;
#208 = CARTESIAN_POINT ( 'NONE',  ( 1.326762908760390423E-13, -4.653657836759941941E-15, 38.00000000000000000 ) ) ;
#209 = PERSON_AND_ORGANIZATION ( #38, #72 ) ;
#210 = EDGE_CURVE ( 'NONE', #79, #79, #140, .T. ) ;
#211 = DIRECTION ( 'NONE',  ( 0.0000000000000000000, 1.000000000000000000, 0.0000000000000000000 ) ) ;
#212 = EDGE_LOOP ( 'NONE', ( #54 ) ) ;
#213 = DESIGN_CONTEXT ( 'detailed design', #57, 'design' ) ;
#214 = LOCAL_TIME ( 7, 15, 38.00000000000000000, #151 ) ;
#215 = DIRECTION ( 'NONE',  ( 4.275831445896958607E-31, 1.000000000000000000, 1.224646799147353207E-16 ) ) ;
#216 = CYLINDRICAL_SURFACE ( 'NONE', #84, 0.9999999999999988898 ) ;
#217 = DIRECTION ( 'NONE',  ( -3.491481338843133355E-15, 1.224646799147353207E-16, -1.000000000000000000 ) ) ;
#218 = DIRECTION ( 'NONE',  ( 3.491481338843133355E-15, -1.224646799147353207E-16, 1.000000000000000000 ) ) ;
#219 = APPROVAL_PERSON_ORGANIZATION ( #33, #8, #48 ) ;
#220 = ADVANCED_BREP_SHAPE_REPRESENTATION ( '55415', ( #132, #201, #103 ), #175 ) ;
#221 = ORIENTED_EDGE ( 'NONE', *, *, #99, .T. ) ;
#222 = CARTESIAN_POINT ( 'NONE',  ( 4.189777606611760026E-14, 0.8149999999999937295, 12.00000000000000000 ) ) ;
#223 = DIRECTION ( 'NONE',  ( 0.0000000000000000000, 0.0000000000000000000, 1.000000000000000000 ) ) ;
ENDSEC;
END-ISO-10303-21;
