ISO-10303-21;
HEADER;
FILE_DESCRIPTION (( 'STEP AP203' ),
    '1' );
FILE_NAME ('55414.step',
    '2021-10-08T05:15:38',
    ( '' ),
    ( '' ),
    'SwSTEP 2.0',
    'SolidWorks 2019',
    '' );
FILE_SCHEMA (( 'CONFIG_CONTROL_DESIGN' ));
ENDSEC;

DATA;
#1 = PERSON_AND_ORGANIZATION ( #76, #127 ) ;
#2 = EDGE_LOOP ( 'NONE', ( #198 ) ) ;
#3 = CC_DESIGN_SECURITY_CLASSIFICATION ( #60, ( #21 ) ) ;
#4 = ORIENTED_EDGE ( 'NONE', *, *, #192, .T. ) ;
#5 = CALENDAR_DATE ( 2021, 8, 10 ) ;
#6 = LOCAL_TIME ( 7, 15, 38.00000000000000000, #211 ) ;
#7 = EDGE_CURVE ( 'NONE', #67, #67, #37, .T. ) ;
#8 = COORDINATED_UNIVERSAL_TIME_OFFSET ( 1, 0, .AHEAD. ) ;
#9 = DATE_AND_TIME ( #77, #154 ) ;
#10 = LOCAL_TIME ( 7, 15, 38.00000000000000000, #185 ) ;
#11 = CLOSED_SHELL ( 'NONE', ( #13, #28, #219 ) ) ;
#12 = DESIGN_CONTEXT ( 'detailed design', #96, 'design' ) ;
#13 = ADVANCED_FACE ( 'NONE', ( #186 ), #63, .T. ) ;
#14 = APPROVAL_PERSON_ORGANIZATION ( #91, #35, #98 ) ;
#15 = FACE_BOUND ( 'NONE', #195, .T. ) ;
#16 = EDGE_LOOP ( 'NONE', ( #4 ) ) ;
#17 = DIRECTION ( 'NONE',  ( 0.0000000000000000000, 1.000000000000000000, 0.0000000000000000000 ) ) ;
#18 = CARTESIAN_POINT ( 'NONE',  ( 0.0000000000000000000, 0.0000000000000000000, 0.0000000000000000000 ) ) ;
#19 = DIRECTION ( 'NONE',  ( -3.491481338843133355E-15, 1.224646799147353207E-16, -1.000000000000000000 ) ) ;
#20 = VERTEX_POINT ( 'NONE', #93 ) ;
#21 = PRODUCT_DEFINITION_FORMATION_WITH_SPECIFIED_SOURCE ( 'ANY', '', #132, .NOT_KNOWN. ) ;
#22 = CALENDAR_DATE ( 2021, 8, 10 ) ;
#23 = LOCAL_TIME ( 7, 15, 38.00000000000000000, #75 ) ;
#24 = MECHANICAL_CONTEXT ( 'NONE', #99, 'mechanical' ) ;
#25 = EDGE_LOOP ( 'NONE', ( #155 ) ) ;
#26 = PRODUCT_DEFINITION ( 'UNKNOWN', '', #21, #12 ) ;
#27 = ORIENTED_EDGE ( 'NONE', *, *, #71, .T. ) ;
#28 = ADVANCED_FACE ( 'NONE', ( #53, #109 ), #90, .T. ) ;
#29 = CARTESIAN_POINT ( 'NONE',  ( 4.189777606611760026E-14, 0.8099999999999938360, 12.00000000000000000 ) ) ;
#30 = VERTEX_POINT ( 'NONE', #59 ) ;
#31 = DIRECTION ( 'NONE',  ( -3.491481338843133355E-15, 1.224646799147353207E-16, -1.000000000000000000 ) ) ;
#32 = FACE_OUTER_BOUND ( 'NONE', #46, .T. ) ;
#33 = DATE_TIME_ROLE ( 'classification_date' ) ;
#34 = CARTESIAN_POINT ( 'NONE',  ( 1.326762908760390423E-13, -4.653657836759941941E-15, 38.00000000000000000 ) ) ;
#35 = APPROVAL ( #61, 'UNSPECIFIED' ) ;
#36 = CARTESIAN_POINT ( 'NONE',  ( 0.0000000000000000000, 0.0000000000000000000, 0.0000000000000000000 ) ) ;
#37 = CIRCLE ( 'NONE', #135, 1.000000000000000888 ) ;
#38 = DIRECTION ( 'NONE',  ( 0.0000000000000000000, 1.000000000000000000, 0.0000000000000000000 ) ) ;
#39 = ORIENTED_EDGE ( 'NONE', *, *, #48, .T. ) ;
#40 = FACE_OUTER_BOUND ( 'NONE', #119, .T. ) ;
#41 = AXIS2_PLACEMENT_3D ( 'NONE', #159, #72, #38 ) ;
#42 = VERTEX_POINT ( 'NONE', #210 ) ;
#43 = CC_DESIGN_PERSON_AND_ORGANIZATION_ASSIGNMENT ( #176, #95, ( #60 ) ) ;
#44 = PERSON_AND_ORGANIZATION ( #76, #127 ) ;
#45 = APPROVAL_STATUS ( 'not_yet_approved' ) ;
#46 = EDGE_LOOP ( 'NONE', ( #129 ) ) ;
#47 = ORIENTED_EDGE ( 'NONE', *, *, #7, .F. ) ;
#48 = EDGE_CURVE ( 'NONE', #42, #42, #151, .T. ) ;
#49 = CARTESIAN_POINT ( 'NONE',  ( 4.189777606611760026E-14, -1.469576158976823947E-15, 12.00000000000000000 ) ) ;
#50 = PERSON_AND_ORGANIZATION ( #76, #127 ) ;
#51 = PERSON_AND_ORGANIZATION_ROLE ( 'design_owner' ) ;
#52 = DIRECTION ( 'NONE',  ( 4.275831445896958607E-31, 1.000000000000000000, 1.224646799147353207E-16 ) ) ;
#53 = FACE_OUTER_BOUND ( 'NONE', #2, .T. ) ;
#54 = DIRECTION ( 'NONE',  ( -3.491481338843133355E-15, 1.224646799147353207E-16, -1.000000000000000000 ) ) ;
#55 = MANIFOLD_SOLID_BREP ( 'Corps-Déplacer/Copier1[2]', #11 ) ;
#56 = CARTESIAN_POINT ( 'NONE',  ( 4.189777606611760026E-14, 6.074027119780467068E-33, 12.00000000000000000 ) ) ;
#57 = APPROVAL_PERSON_ORGANIZATION ( #84, #88, #206 ) ;
#58 = DIRECTION ( 'NONE',  ( -4.275831445896958607E-31, -1.000000000000000000, -1.224646799147353207E-16 ) ) ;
#59 = CARTESIAN_POINT ( 'NONE',  ( 4.189777606611760026E-14, 0.8099999999999938360, 12.00000000000000000 ) ) ;
#60 = SECURITY_CLASSIFICATION ( '', '', #191 ) ;
#61 = APPROVAL_STATUS ( 'not_yet_approved' ) ;
#62 = ORIENTED_EDGE ( 'NONE', *, *, #7, .T. ) ;
#63 = CONICAL_SURFACE ( 'NONE', #213, 0.8099999999999936140, 1.029744258676649649 ) ;
#64 = EDGE_CURVE ( 'NONE', #30, #30, #142, .T. ) ;
#65 = DATE_AND_TIME ( #5, #10 ) ;
#66 = PERSON_AND_ORGANIZATION ( #76, #127 ) ;
#67 = VERTEX_POINT ( 'NONE', #166 ) ;
#68 = VERTEX_POINT ( 'NONE', #199 ) ;
#69 = AXIS2_PLACEMENT_3D ( 'NONE', #111, #92, #188 ) ;
#70 = DIRECTION ( 'NONE',  ( -3.491481338843133355E-15, 1.224646799147353207E-16, -1.000000000000000000 ) ) ;
#71 = EDGE_CURVE ( 'NONE', #20, #20, #163, .T. ) ;
#72 = DIRECTION ( 'NONE',  ( -3.491481338843133355E-15, 1.224646799147353207E-16, -1.000000000000000000 ) ) ;
#73 = DIRECTION ( 'NONE',  ( -4.275831445896958607E-31, -1.000000000000000000, -1.224646799147353207E-16 ) ) ;
#74 = CARTESIAN_POINT ( 'NONE',  ( 1.319779946082704535E-13, -4.629164900776995227E-15, 37.79999999999999716 ) ) ;
#75 = COORDINATED_UNIVERSAL_TIME_OFFSET ( 1, 0, .AHEAD. ) ;
#76 = PERSON ( 'UNSPECIFIED', 'UNSPECIFIED', 'UNSPECIFIED', ('UNSPECIFIED'), ('UNSPECIFIED'), ('UNSPECIFIED') ) ;
#77 = CALENDAR_DATE ( 2021, 8, 10 ) ;
#78 = CC_DESIGN_APPROVAL ( #88, ( #60 ) ) ;
#79 = ADVANCED_FACE ( 'NONE', ( #40, #114 ), #221, .T. ) ;
#80 = AXIS2_PLACEMENT_3D ( 'NONE', #113, #182, #172 ) ;
#81 = DIRECTION ( 'NONE',  ( 1.000000000000000000, 0.0000000000000000000, 0.0000000000000000000 ) ) ;
#82 = FACE_OUTER_BOUND ( 'NONE', #152, .T. ) ;
#83 = DIRECTION ( 'NONE',  ( 0.0000000000000000000, 1.000000000000000000, 0.0000000000000000000 ) ) ;
#84 = PERSON_AND_ORGANIZATION ( #76, #127 ) ;
#85 = DIRECTION ( 'NONE',  ( -3.491481338843133355E-15, 1.224646799147353207E-16, -1.000000000000000000 ) ) ;
#86 = AXIS2_PLACEMENT_3D ( 'NONE', #34, #169, #17 ) ;
#87 =( NAMED_UNIT ( * ) SI_UNIT ( $, .STERADIAN. ) SOLID_ANGLE_UNIT ( ) );
#88 = APPROVAL ( #45, 'UNSPECIFIED' ) ;
#89 = PLANE ( 'NONE',  #102 ) ;
#90 = CYLINDRICAL_SURFACE ( 'NONE', #175, 0.8099999999999945022 ) ;
#91 = PERSON_AND_ORGANIZATION ( #76, #127 ) ;
#92 = DIRECTION ( 'NONE',  ( -3.491481338843133355E-15, 1.224646799147353207E-16, -1.000000000000000000 ) ) ;
#93 = CARTESIAN_POINT ( 'NONE',  ( 1.699293847250178150E-15, 0.8099999999999935030, 0.4866971014123253614 ) ) ;
#94 = CALENDAR_DATE ( 2021, 8, 10 ) ;
#95 = PERSON_AND_ORGANIZATION_ROLE ( 'classification_officer' ) ;
#96 = APPLICATION_CONTEXT ( 'configuration controlled 3d designs of mechanical parts and assemblies' ) ;
#97 = AXIS2_PLACEMENT_3D ( 'NONE', #36, #165, #81 ) ;
#98 = APPROVAL_ROLE ( '' ) ;
#99 = APPLICATION_CONTEXT ( 'configuration controlled 3d designs of mechanical parts and assemblies' ) ;
#100 = DATE_AND_TIME ( #22, #23 ) ;
#101 = CC_DESIGN_DATE_AND_TIME_ASSIGNMENT ( #65, #121, ( #26 ) ) ;
#102 = AXIS2_PLACEMENT_3D ( 'NONE', #161, #108, #73 ) ;
#103 = EDGE_LOOP ( 'NONE', ( #143 ) ) ;
#104 = CIRCLE ( 'NONE', #220, 0.8000000000000009326 ) ;
#105 = EDGE_LOOP ( 'NONE', ( #136 ) ) ;
#106 =( LENGTH_UNIT ( ) NAMED_UNIT ( * ) SI_UNIT ( .MILLI., .METRE. ) );
#107 = DIRECTION ( 'NONE',  ( 0.0000000000000000000, -1.000000000000000000, 0.0000000000000000000 ) ) ;
#108 = DIRECTION ( 'NONE',  ( 3.491481338843133355E-15, -1.224646799147353207E-16, 1.000000000000000000 ) ) ;
#109 = FACE_OUTER_BOUND ( 'NONE', #16, .T. ) ;
#110 = CC_DESIGN_APPROVAL ( #190, ( #21 ) ) ;
#111 = CARTESIAN_POINT ( 'NONE',  ( 1.699293847250177756E-15, -5.960320473988989159E-17, 0.4866971014123253059 ) ) ;
#112 = DIRECTION ( 'NONE',  ( 3.491481338843133355E-15, -1.224646799147353207E-16, 1.000000000000000000 ) ) ;
#113 = CARTESIAN_POINT ( 'NONE',  ( 4.304678644990306453E-14, -1.509878018048371289E-15, 12.32908965343809449 ) ) ;
#114 = FACE_BOUND ( 'NONE', #25, .T. ) ;
#115 = AXIS2_PLACEMENT_3D ( 'NONE', #144, #85, #52 ) ;
#116 = APPROVAL_DATE_TIME ( #207, #88 ) ;
#117 = ADVANCED_FACE ( 'NONE', ( #32 ), #89, .F. ) ;
#118 = AXIS2_PLACEMENT_3D ( 'NONE', #156, #138, #107 ) ;
#119 = EDGE_LOOP ( 'NONE', ( #47 ) ) ;
#120 = DATE_AND_TIME ( #177, #6 ) ;
#121 = DATE_TIME_ROLE ( 'creation_date' ) ;
#122 = CC_DESIGN_APPROVAL ( #35, ( #26 ) ) ;
#123 = PERSON_AND_ORGANIZATION_ROLE ( 'creator' ) ;
#124 = DIRECTION ( 'NONE',  ( 4.275831445896958607E-31, 1.000000000000000000, 1.224646799147353207E-16 ) ) ;
#125 = ADVANCED_BREP_SHAPE_REPRESENTATION ( '55414', ( #137, #55, #97 ), #131 ) ;
#126 = FACE_OUTER_BOUND ( 'NONE', #105, .T. ) ;
#127 = ORGANIZATION ( 'UNSPECIFIED', 'UNSPECIFIED', '' ) ;
#128 = PLANE ( 'NONE',  #183 ) ;
#129 = ORIENTED_EDGE ( 'NONE', *, *, #64, .T. ) ;
#130 = CARTESIAN_POINT ( 'NONE',  ( 1.699293847250177756E-15, -5.960320473988989159E-17, 0.4866971014123253059 ) ) ;
#131 =( GEOMETRIC_REPRESENTATION_CONTEXT ( 3 ) GLOBAL_UNCERTAINTY_ASSIGNED_CONTEXT ( ( #215 ) ) GLOBAL_UNIT_ASSIGNED_CONTEXT ( ( #106, #202, #87 ) ) REPRESENTATION_CONTEXT ( 'NONE', 'WORKASPACE' ) );
#132 = PRODUCT ( '55414', '55414', '', ( #24 ) ) ;
#133 = APPLICATION_PROTOCOL_DEFINITION ( 'international standard', 'config_control_design', 1994, #96 ) ;
#134 = APPROVAL_PERSON_ORGANIZATION ( #50, #190, #193 ) ;
#135 = AXIS2_PLACEMENT_3D ( 'NONE', #74, #19, #201 ) ;
#136 = ORIENTED_EDGE ( 'NONE', *, *, #48, .F. ) ;
#137 = MANIFOLD_SOLID_BREP ( 'Corps-Déplacer/Copier1[1]', #180 ) ;
#138 = DIRECTION ( 'NONE',  ( 3.491481338843133355E-15, -1.224646799147353207E-16, 1.000000000000000000 ) ) ;
#139 = CC_DESIGN_PERSON_AND_ORGANIZATION_ASSIGNMENT ( #66, #123, ( #26 ) ) ;
#140 = PERSON_AND_ORGANIZATION_ROLE ( 'creator' ) ;
#141 = LOCAL_TIME ( 7, 15, 38.00000000000000000, #218 ) ;
#142 = CIRCLE ( 'NONE', #41, 0.8099999999999953904 ) ;
#143 = ORIENTED_EDGE ( 'NONE', *, *, #192, .F. ) ;
#144 = CARTESIAN_POINT ( 'NONE',  ( 1.326762908760390423E-13, 5.999039130647367482E-33, 38.00000000000000000 ) ) ;
#145 = EDGE_LOOP ( 'NONE', ( #170 ) ) ;
#146 = CARTESIAN_POINT ( 'NONE',  ( 0.0000000000000000000, 0.0000000000000000000, 0.0000000000000000000 ) ) ;
#147 = CC_DESIGN_PERSON_AND_ORGANIZATION_ASSIGNMENT ( #181, #171, ( #21 ) ) ;
#148 = FACE_OUTER_BOUND ( 'NONE', #103, .T. ) ;
#149 = PRODUCT_DEFINITION_SHAPE ( 'NONE', 'NONE',  #26 ) ;
#150 = APPROVAL_DATE_TIME ( #100, #35 ) ;
#151 = CIRCLE ( 'NONE', #80, 0.9999999999999970024 ) ;
#152 = EDGE_LOOP ( 'NONE', ( #39 ) ) ;
#153 = ADVANCED_FACE ( 'NONE', ( #223 ), #168, .F. ) ;
#154 = LOCAL_TIME ( 7, 15, 38.00000000000000000, #8 ) ;
#155 = ORIENTED_EDGE ( 'NONE', *, *, #194, .T. ) ;
#156 = CARTESIAN_POINT ( 'NONE',  ( 4.304678644990306453E-14, -1.509878018048371289E-15, 12.32908965343809449 ) ) ;
#157 = DIRECTION ( 'NONE',  ( -3.491481338843133355E-15, 1.224646799147353207E-16, -1.000000000000000000 ) ) ;
#158 = APPROVAL_DATE_TIME ( #120, #190 ) ;
#159 = CARTESIAN_POINT ( 'NONE',  ( 4.189777606611760026E-14, -1.469576158976823947E-15, 12.00000000000000000 ) ) ;
#160 = DIRECTION ( 'NONE',  ( 4.275831445896957731E-31, 1.000000000000000000, 1.224646799147353454E-16 ) ) ;
#161 = CARTESIAN_POINT ( 'NONE',  ( 4.189777606611760026E-14, 6.074027119780467068E-33, 12.00000000000000000 ) ) ;
#162 = SHAPE_DEFINITION_REPRESENTATION ( #149, #125 ) ;
#163 = CIRCLE ( 'NONE', #69, 0.8099999999999936140 ) ;
#164 = CIRCLE ( 'NONE', #174, 0.8099999999999953904 ) ;
#165 = DIRECTION ( 'NONE',  ( 0.0000000000000000000, 0.0000000000000000000, 1.000000000000000000 ) ) ;
#166 = CARTESIAN_POINT ( 'NONE',  ( 1.319779946082704535E-13, 0.9999999999999963363, 37.79999999999999716 ) ) ;
#167 = APPROVAL_STATUS ( 'not_yet_approved' ) ;
#168 = PLANE ( 'NONE',  #115 ) ;
#169 = DIRECTION ( 'NONE',  ( -3.491481338843133355E-15, 1.224646799147353207E-16, -1.000000000000000000 ) ) ;
#170 = ORIENTED_EDGE ( 'NONE', *, *, #194, .F. ) ;
#171 = PERSON_AND_ORGANIZATION_ROLE ( 'design_supplier' ) ;
#172 = DIRECTION ( 'NONE',  ( 0.0000000000000000000, 1.000000000000000000, 0.0000000000000000000 ) ) ;
#173 = ADVANCED_FACE ( 'NONE', ( #126, #184 ), #222, .T. ) ;
#174 = AXIS2_PLACEMENT_3D ( 'NONE', #49, #31, #83 ) ;
#175 = AXIS2_PLACEMENT_3D ( 'NONE', #146, #54, #124 ) ;
#176 = PERSON_AND_ORGANIZATION ( #76, #127 ) ;
#177 = CALENDAR_DATE ( 2021, 8, 10 ) ;
#178 = ORIENTED_EDGE ( 'NONE', *, *, #64, .F. ) ;
#179 = DIRECTION ( 'NONE',  ( 0.0000000000000000000, 1.000000000000000000, 0.0000000000000000000 ) ) ;
#180 = CLOSED_SHELL ( 'NONE', ( #117, #200, #173, #79, #153 ) ) ;
#181 = PERSON_AND_ORGANIZATION ( #76, #127 ) ;
#182 = DIRECTION ( 'NONE',  ( -3.491481338843133355E-15, 1.224646799147353207E-16, -1.000000000000000000 ) ) ;
#183 = AXIS2_PLACEMENT_3D ( 'NONE', #56, #112, #58 ) ;
#184 = FACE_OUTER_BOUND ( 'NONE', #214, .T. ) ;
#185 = COORDINATED_UNIVERSAL_TIME_OFFSET ( 1, 0, .AHEAD. ) ;
#186 = FACE_OUTER_BOUND ( 'NONE', #217, .T. ) ;
#187 = CC_DESIGN_PERSON_AND_ORGANIZATION_ASSIGNMENT ( #1, #140, ( #21 ) ) ;
#188 = DIRECTION ( 'NONE',  ( 4.755382578733953336E-31, 1.000000000000000000, 1.338521200599398787E-16 ) ) ;
#189 = CONICAL_SURFACE ( 'NONE', #118, 0.9999999999999970024, 0.5235987755982919323 ) ;
#190 = APPROVAL ( #167, 'UNSPECIFIED' ) ;
#191 = SECURITY_CLASSIFICATION_LEVEL ( 'unclassified' ) ;
#192 = EDGE_CURVE ( 'NONE', #204, #204, #164, .T. ) ;
#193 = APPROVAL_ROLE ( '' ) ;
#194 = EDGE_CURVE ( 'NONE', #68, #68, #104, .T. ) ;
#195 = EDGE_LOOP ( 'NONE', ( #178 ) ) ;
#196 = APPLICATION_PROTOCOL_DEFINITION ( 'international standard', 'config_control_design', 1994, #99 ) ;
#197 = CARTESIAN_POINT ( 'NONE',  ( 1.326762908760390423E-13, -4.653657836759941941E-15, 38.00000000000000000 ) ) ;
#198 = ORIENTED_EDGE ( 'NONE', *, *, #71, .F. ) ;
#199 = CARTESIAN_POINT ( 'NONE',  ( 1.326762908760390423E-13, 0.7999999999999962697, 38.00000000000000000 ) ) ;
#200 = ADVANCED_FACE ( 'NONE', ( #15, #82 ), #189, .T. ) ;
#201 = DIRECTION ( 'NONE',  ( 0.0000000000000000000, 1.000000000000000000, 0.0000000000000000000 ) ) ;
#202 =( NAMED_UNIT ( * ) PLANE_ANGLE_UNIT ( ) SI_UNIT ( $, .RADIAN. ) );
#203 = DIRECTION ( 'NONE',  ( 3.491481338843133355E-15, -1.224646799147353207E-16, 1.000000000000000000 ) ) ;
#204 = VERTEX_POINT ( 'NONE', #29 ) ;
#205 = DIRECTION ( 'NONE',  ( -4.755382578733953336E-31, -1.000000000000000000, -1.338521200599398787E-16 ) ) ;
#206 = APPROVAL_ROLE ( '' ) ;
#207 = DATE_AND_TIME ( #94, #141 ) ;
#208 = AXIS2_PLACEMENT_3D ( 'NONE', #18, #70, #160 ) ;
#209 = PRODUCT_RELATED_PRODUCT_CATEGORY ( 'detail', '', ( #132 ) ) ;
#210 = CARTESIAN_POINT ( 'NONE',  ( 4.304678644990306453E-14, 0.9999999999999954481, 12.32908965343809449 ) ) ;
#211 = COORDINATED_UNIVERSAL_TIME_OFFSET ( 1, 0, .AHEAD. ) ;
#212 = CC_DESIGN_PERSON_AND_ORGANIZATION_ASSIGNMENT ( #44, #51, ( #132 ) ) ;
#213 = AXIS2_PLACEMENT_3D ( 'NONE', #130, #203, #205 ) ;
#214 = EDGE_LOOP ( 'NONE', ( #62 ) ) ;
#215 = UNCERTAINTY_MEASURE_WITH_UNIT (LENGTH_MEASURE( 1.000000000000000082E-05 ), #106, 'distance_accuracy_value', 'NONE');
#216 = CC_DESIGN_DATE_AND_TIME_ASSIGNMENT ( #9, #33, ( #60 ) ) ;
#217 = EDGE_LOOP ( 'NONE', ( #27 ) ) ;
#218 = COORDINATED_UNIVERSAL_TIME_OFFSET ( 1, 0, .AHEAD. ) ;
#219 = ADVANCED_FACE ( 'NONE', ( #148 ), #128, .T. ) ;
#220 = AXIS2_PLACEMENT_3D ( 'NONE', #197, #157, #179 ) ;
#221 = CONICAL_SURFACE ( 'NONE', #86, 0.8000000000000009326, 0.7853981633974512766 ) ;
#222 = CYLINDRICAL_SURFACE ( 'NONE', #208, 0.9999999999999988898 ) ;
#223 = FACE_OUTER_BOUND ( 'NONE', #145, .T. ) ;
ENDSEC;
END-ISO-10303-21;
