ISO-10303-21;
HEADER;
FILE_DESCRIPTION (( 'STEP AP203' ),
    '1' );
FILE_NAME ('55413.step',
    '2021-10-08T05:15:37',
    ( '' ),
    ( '' ),
    'SwSTEP 2.0',
    'SolidWorks 2019',
    '' );
FILE_SCHEMA (( 'CONFIG_CONTROL_DESIGN' ));
ENDSEC;

DATA;
#1 = CC_DESIGN_APPROVAL ( #112, ( #5 ) ) ;
#2 = DIRECTION ( 'NONE',  ( -4.275831445896958607E-31, -1.000000000000000000, -1.224646799147353207E-16 ) ) ;
#3 = CC_DESIGN_PERSON_AND_ORGANIZATION_ASSIGNMENT ( #197, #31, ( #5 ) ) ;
#4 = DIRECTION ( 'NONE',  ( -3.491481338843133355E-15, 1.224646799147353207E-16, -1.000000000000000000 ) ) ;
#5 = SECURITY_CLASSIFICATION ( '', '', #134 ) ;
#6 = MECHANICAL_CONTEXT ( 'NONE', #59, 'mechanical' ) ;
#7 = ADVANCED_FACE ( 'NONE', ( #89, #110 ), #204, .T. ) ;
#8 = PLANE ( 'NONE',  #127 ) ;
#9 = CC_DESIGN_PERSON_AND_ORGANIZATION_ASSIGNMENT ( #15, #80, ( #158 ) ) ;
#10 = VERTEX_POINT ( 'NONE', #74 ) ;
#11 = CALENDAR_DATE ( 2021, 8, 10 ) ;
#12 = DIRECTION ( 'NONE',  ( -3.491481338843133355E-15, 1.224646799147353207E-16, -1.000000000000000000 ) ) ;
#13 = APPROVAL_ROLE ( '' ) ;
#14 = DIRECTION ( 'NONE',  ( 4.275831445896958607E-31, 1.000000000000000000, 1.224646799147353207E-16 ) ) ;
#15 = PERSON_AND_ORGANIZATION ( #209, #33 ) ;
#16 = AXIS2_PLACEMENT_3D ( 'NONE', #161, #96, #101 ) ;
#17 = DIRECTION ( 'NONE',  ( 4.784919116490064760E-31, 1.000000000000000000, 1.346834996876413662E-16 ) ) ;
#18 = ADVANCED_FACE ( 'NONE', ( #218, #156 ), #208, .T. ) ;
#19 = DIRECTION ( 'NONE',  ( -3.491481338843133355E-15, 1.224646799147353207E-16, -1.000000000000000000 ) ) ;
#20 = CIRCLE ( 'NONE', #140, 1.000000000000000888 ) ;
#21 = PRODUCT_DEFINITION ( 'UNKNOWN', '', #158, #190 ) ;
#22 = ORIENTED_EDGE ( 'NONE', *, *, #50, .T. ) ;
#23 = EDGE_LOOP ( 'NONE', ( #109 ) ) ;
#24 = CIRCLE ( 'NONE', #125, 0.8049999999999964961 ) ;
#25 =( LENGTH_UNIT ( ) NAMED_UNIT ( * ) SI_UNIT ( .MILLI., .METRE. ) );
#26 = DIRECTION ( 'NONE',  ( 4.275831445896958607E-31, 1.000000000000000000, 1.224646799147353207E-16 ) ) ;
#27 = PERSON_AND_ORGANIZATION_ROLE ( 'design_owner' ) ;
#28 = CARTESIAN_POINT ( 'NONE',  ( 1.326762908760390423E-13, 0.7999999999999962697, 38.00000000000000000 ) ) ;
#29 = APPROVAL_ROLE ( '' ) ;
#30 = DIRECTION ( 'NONE',  ( 3.491481338843133355E-15, -1.224646799147353207E-16, 1.000000000000000000 ) ) ;
#31 = PERSON_AND_ORGANIZATION_ROLE ( 'classification_officer' ) ;
#32 = CYLINDRICAL_SURFACE ( 'NONE', #212, 0.9999999999999988898 ) ;
#33 = ORGANIZATION ( 'UNSPECIFIED', 'UNSPECIFIED', '' ) ;
#34 = FACE_OUTER_BOUND ( 'NONE', #107, .T. ) ;
#35 = ADVANCED_FACE ( 'NONE', ( #172 ), #8, .F. ) ;
#36 = AXIS2_PLACEMENT_3D ( 'NONE', #61, #30, #2 ) ;
#37 = CARTESIAN_POINT ( 'NONE',  ( 1.326762908760390423E-13, -4.653657836759941941E-15, 38.00000000000000000 ) ) ;
#38 = ORIENTED_EDGE ( 'NONE', *, *, #211, .F. ) ;
#39 = EDGE_LOOP ( 'NONE', ( #41 ) ) ;
#40 = MANIFOLD_SOLID_BREP ( 'Corps-Déplacer/Copier1[2]', #77 ) ;
#41 = ORIENTED_EDGE ( 'NONE', *, *, #171, .T. ) ;
#42 = EDGE_LOOP ( 'NONE', ( #38 ) ) ;
#43 = CARTESIAN_POINT ( 'NONE',  ( 4.189777606611760026E-14, 0.8049999999999949418, 12.00000000000000000 ) ) ;
#44 = PERSON_AND_ORGANIZATION_ROLE ( 'creator' ) ;
#45 = APPROVAL_PERSON_ORGANIZATION ( #160, #167, #13 ) ;
#46 = CYLINDRICAL_SURFACE ( 'NONE', #113, 0.8049999999999950528 ) ;
#47 = COORDINATED_UNIVERSAL_TIME_OFFSET ( 1, 0, .AHEAD. ) ;
#48 = FACE_OUTER_BOUND ( 'NONE', #144, .T. ) ;
#49 = DIRECTION ( 'NONE',  ( 4.275831445896957731E-31, 1.000000000000000000, 1.224646799147353454E-16 ) ) ;
#50 = EDGE_CURVE ( 'NONE', #131, #131, #116, .T. ) ;
#51 =( NAMED_UNIT ( * ) SI_UNIT ( $, .STERADIAN. ) SOLID_ANGLE_UNIT ( ) );
#52 = UNCERTAINTY_MEASURE_WITH_UNIT (LENGTH_MEASURE( 1.000000000000000082E-05 ), #25, 'distance_accuracy_value', 'NONE');
#53 = ADVANCED_FACE ( 'NONE', ( #48 ), #106, .T. ) ;
#54 = EDGE_LOOP ( 'NONE', ( #126 ) ) ;
#55 = PRODUCT_RELATED_PRODUCT_CATEGORY ( 'detail', '', ( #123 ) ) ;
#56 = EDGE_LOOP ( 'NONE', ( #91 ) ) ;
#57 = PERSON_AND_ORGANIZATION ( #209, #33 ) ;
#58 = DIRECTION ( 'NONE',  ( 0.0000000000000000000, 1.000000000000000000, 0.0000000000000000000 ) ) ;
#59 = APPLICATION_CONTEXT ( 'configuration controlled 3d designs of mechanical parts and assemblies' ) ;
#60 = APPROVAL_STATUS ( 'not_yet_approved' ) ;
#61 = CARTESIAN_POINT ( 'NONE',  ( 4.189777606611760026E-14, 6.036533125213928565E-33, 12.00000000000000000 ) ) ;
#62 = PERSON_AND_ORGANIZATION ( #209, #33 ) ;
#63 = LOCAL_TIME ( 7, 15, 37.00000000000000000, #79 ) ;
#64 = FACE_OUTER_BOUND ( 'NONE', #39, .T. ) ;
#65 = PLANE ( 'NONE',  #184 ) ;
#66 = CC_DESIGN_PERSON_AND_ORGANIZATION_ASSIGNMENT ( #182, #44, ( #21 ) ) ;
#67 = LOCAL_TIME ( 7, 15, 37.00000000000000000, #47 ) ;
#68 = CIRCLE ( 'NONE', #189, 0.8049999999999936096 ) ;
#69 = EDGE_LOOP ( 'NONE', ( #192 ) ) ;
#70 = APPLICATION_CONTEXT ( 'configuration controlled 3d designs of mechanical parts and assemblies' ) ;
#71 = APPROVAL_PERSON_ORGANIZATION ( #62, #83, #29 ) ;
#72 = CARTESIAN_POINT ( 'NONE',  ( 1.326762908760390423E-13, 5.999039130647367482E-33, 38.00000000000000000 ) ) ;
#73 = EDGE_LOOP ( 'NONE', ( #194 ) ) ;
#74 = CARTESIAN_POINT ( 'NONE',  ( 1.319779946082704535E-13, 0.9999999999999963363, 37.79999999999999716 ) ) ;
#75 = LOCAL_TIME ( 7, 15, 37.00000000000000000, #130 ) ;
#76 = DATE_AND_TIME ( #11, #152 ) ;
#77 = CLOSED_SHELL ( 'NONE', ( #53, #201, #191 ) ) ;
#78 = FACE_OUTER_BOUND ( 'NONE', #196, .T. ) ;
#79 = COORDINATED_UNIVERSAL_TIME_OFFSET ( 1, 0, .AHEAD. ) ;
#80 = PERSON_AND_ORGANIZATION_ROLE ( 'creator' ) ;
#81 = CARTESIAN_POINT ( 'NONE',  ( 4.189777606611760026E-14, -1.469576158976823947E-15, 12.00000000000000000 ) ) ;
#82 = DIRECTION ( 'NONE',  ( -3.491481338843133355E-15, 1.224646799147353207E-16, -1.000000000000000000 ) ) ;
#83 = APPROVAL ( #180, 'UNSPECIFIED' ) ;
#84 = CARTESIAN_POINT ( 'NONE',  ( 0.0000000000000000000, 0.0000000000000000000, 0.0000000000000000000 ) ) ;
#85 = CIRCLE ( 'NONE', #168, 0.8049999999999964961 ) ;
#86 =( GEOMETRIC_REPRESENTATION_CONTEXT ( 3 ) GLOBAL_UNCERTAINTY_ASSIGNED_CONTEXT ( ( #52 ) ) GLOBAL_UNIT_ASSIGNED_CONTEXT ( ( #25, #145, #51 ) ) REPRESENTATION_CONTEXT ( 'NONE', 'WORKASPACE' ) );
#87 = COORDINATED_UNIVERSAL_TIME_OFFSET ( 1, 0, .AHEAD. ) ;
#88 = CLOSED_SHELL ( 'NONE', ( #146, #18, #155, #7, #35 ) ) ;
#89 = FACE_OUTER_BOUND ( 'NONE', #42, .T. ) ;
#90 = CC_DESIGN_APPROVAL ( #83, ( #158 ) ) ;
#91 = ORIENTED_EDGE ( 'NONE', *, *, #143, .T. ) ;
#92 = VERTEX_POINT ( 'NONE', #193 ) ;
#93 = DIRECTION ( 'NONE',  ( 0.0000000000000000000, 1.000000000000000000, 0.0000000000000000000 ) ) ;
#94 = COORDINATED_UNIVERSAL_TIME_OFFSET ( 1, 0, .AHEAD. ) ;
#95 = CIRCLE ( 'NONE', #178, 0.8000000000000009326 ) ;
#96 = DIRECTION ( 'NONE',  ( 3.491481338843133355E-15, -1.224646799147353207E-16, 1.000000000000000000 ) ) ;
#97 = VERTEX_POINT ( 'NONE', #173 ) ;
#98 = CALENDAR_DATE ( 2021, 8, 10 ) ;
#99 = CARTESIAN_POINT ( 'NONE',  ( 4.307702356526584588E-14, -1.510938593287096333E-15, 12.33774990747594025 ) ) ;
#100 = APPROVAL_DATE_TIME ( #162, #83 ) ;
#101 = DIRECTION ( 'NONE',  ( -4.784919116490064760E-31, -1.000000000000000000, -1.346834996876413662E-16 ) ) ;
#102 = CARTESIAN_POINT ( 'NONE',  ( 0.0000000000000000000, 0.0000000000000000000, 0.0000000000000000000 ) ) ;
#103 = APPROVAL_DATE_TIME ( #207, #112 ) ;
#104 = AXIS2_PLACEMENT_3D ( 'NONE', #105, #139, #213 ) ;
#105 = CARTESIAN_POINT ( 'NONE',  ( 4.307702356526584588E-14, -1.510938593287096333E-15, 12.33774990747594025 ) ) ;
#106 = CONICAL_SURFACE ( 'NONE', #16, 0.8049999999999936096, 1.029744258676649871 ) ;
#107 = EDGE_LOOP ( 'NONE', ( #216 ) ) ;
#108 = CC_DESIGN_PERSON_AND_ORGANIZATION_ASSIGNMENT ( #150, #118, ( #158 ) ) ;
#109 = ORIENTED_EDGE ( 'NONE', *, *, #171, .F. ) ;
#110 = FACE_BOUND ( 'NONE', #56, .T. ) ;
#111 = APPROVAL_STATUS ( 'not_yet_approved' ) ;
#112 = APPROVAL ( #111, 'UNSPECIFIED' ) ;
#113 = AXIS2_PLACEMENT_3D ( 'NONE', #181, #121, #26 ) ;
#114 = VERTEX_POINT ( 'NONE', #43 ) ;
#115 = DATE_AND_TIME ( #203, #75 ) ;
#116 = CIRCLE ( 'NONE', #142, 0.9999999999999970024 ) ;
#117 = DIRECTION ( 'NONE',  ( 3.491481338843133355E-15, -1.224646799147353207E-16, 1.000000000000000000 ) ) ;
#118 = PERSON_AND_ORGANIZATION_ROLE ( 'design_supplier' ) ;
#119 = MANIFOLD_SOLID_BREP ( 'Corps-Déplacer/Copier1[1]', #88 ) ;
#120 = CARTESIAN_POINT ( 'NONE',  ( 4.189777606611760026E-14, -1.469576158976823947E-15, 12.00000000000000000 ) ) ;
#121 = DIRECTION ( 'NONE',  ( -3.491481338843133355E-15, 1.224646799147353207E-16, -1.000000000000000000 ) ) ;
#122 = DIRECTION ( 'NONE',  ( 1.000000000000000000, 0.0000000000000000000, 0.0000000000000000000 ) ) ;
#123 = PRODUCT ( '55413', '55413', '', ( #6 ) ) ;
#124 = EDGE_CURVE ( 'NONE', #114, #114, #24, .T. ) ;
#125 = AXIS2_PLACEMENT_3D ( 'NONE', #120, #4, #185 ) ;
#126 = ORIENTED_EDGE ( 'NONE', *, *, #124, .T. ) ;
#127 = AXIS2_PLACEMENT_3D ( 'NONE', #72, #141, #14 ) ;
#128 = ORIENTED_EDGE ( 'NONE', *, *, #157, .T. ) ;
#129 = ADVANCED_BREP_SHAPE_REPRESENTATION ( '55413', ( #119, #40, #169 ), #86 ) ;
#130 = COORDINATED_UNIVERSAL_TIME_OFFSET ( 1, 0, .AHEAD. ) ;
#131 = VERTEX_POINT ( 'NONE', #198 ) ;
#132 = APPLICATION_PROTOCOL_DEFINITION ( 'international standard', 'config_control_design', 1994, #70 ) ;
#133 = DIRECTION ( 'NONE',  ( -4.275831445896958607E-31, -1.000000000000000000, -1.224646799147353207E-16 ) ) ;
#134 = SECURITY_CLASSIFICATION_LEVEL ( 'unclassified' ) ;
#135 = CARTESIAN_POINT ( 'NONE',  ( 4.189777606611760026E-14, 6.036533125213928565E-33, 12.00000000000000000 ) ) ;
#136 = FACE_OUTER_BOUND ( 'NONE', #54, .T. ) ;
#137 = PRODUCT_DEFINITION_SHAPE ( 'NONE', 'NONE',  #21 ) ;
#138 = CALENDAR_DATE ( 2021, 8, 10 ) ;
#139 = DIRECTION ( 'NONE',  ( 3.491481338843133355E-15, -1.224646799147353207E-16, 1.000000000000000000 ) ) ;
#140 = AXIS2_PLACEMENT_3D ( 'NONE', #159, #12, #220 ) ;
#141 = DIRECTION ( 'NONE',  ( -3.491481338843133355E-15, 1.224646799147353207E-16, -1.000000000000000000 ) ) ;
#142 = AXIS2_PLACEMENT_3D ( 'NONE', #99, #147, #154 ) ;
#143 = EDGE_CURVE ( 'NONE', #179, #179, #95, .T. ) ;
#144 = EDGE_LOOP ( 'NONE', ( #128 ) ) ;
#145 =( NAMED_UNIT ( * ) PLANE_ANGLE_UNIT ( ) SI_UNIT ( $, .RADIAN. ) );
#146 = ADVANCED_FACE ( 'NONE', ( #64 ), #183, .F. ) ;
#147 = DIRECTION ( 'NONE',  ( -3.491481338843133355E-15, 1.224646799147353207E-16, -1.000000000000000000 ) ) ;
#148 = DATE_AND_TIME ( #199, #63 ) ;
#149 = DIRECTION ( 'NONE',  ( -3.491481338843133355E-15, 1.224646799147353207E-16, -1.000000000000000000 ) ) ;
#150 = PERSON_AND_ORGANIZATION ( #209, #33 ) ;
#151 = CC_DESIGN_PERSON_AND_ORGANIZATION_ASSIGNMENT ( #223, #27, ( #123 ) ) ;
#152 = LOCAL_TIME ( 7, 15, 37.00000000000000000, #94 ) ;
#153 = CARTESIAN_POINT ( 'NONE',  ( 1.326762908760390423E-13, -4.653657836759941941E-15, 38.00000000000000000 ) ) ;
#154 = DIRECTION ( 'NONE',  ( 0.0000000000000000000, 1.000000000000000000, 0.0000000000000000000 ) ) ;
#155 = ADVANCED_FACE ( 'NONE', ( #222, #78 ), #32, .T. ) ;
#156 = FACE_OUTER_BOUND ( 'NONE', #195, .T. ) ;
#157 = EDGE_CURVE ( 'NONE', #97, #97, #68, .T. ) ;
#158 = PRODUCT_DEFINITION_FORMATION_WITH_SPECIFIED_SOURCE ( 'ANY', '', #123, .NOT_KNOWN. ) ;
#159 = CARTESIAN_POINT ( 'NONE',  ( 1.319779946082704535E-13, -4.629164900776995227E-15, 37.79999999999999716 ) ) ;
#160 = PERSON_AND_ORGANIZATION ( #209, #33 ) ;
#161 = CARTESIAN_POINT ( 'NONE',  ( 1.688804379057275275E-15, -5.923528372297699117E-17, 0.4836927983171874779 ) ) ;
#162 = DATE_AND_TIME ( #98, #67 ) ;
#163 = DIRECTION ( 'NONE',  ( -3.491481338843133355E-15, 1.224646799147353207E-16, -1.000000000000000000 ) ) ;
#164 = DATE_TIME_ROLE ( 'creation_date' ) ;
#165 = CC_DESIGN_APPROVAL ( #167, ( #21 ) ) ;
#166 = CARTESIAN_POINT ( 'NONE',  ( 1.688804379057275275E-15, -5.923528372297699117E-17, 0.4836927983171874779 ) ) ;
#167 = APPROVAL ( #60, 'UNSPECIFIED' ) ;
#168 = AXIS2_PLACEMENT_3D ( 'NONE', #81, #82, #58 ) ;
#169 = AXIS2_PLACEMENT_3D ( 'NONE', #84, #210, #122 ) ;
#170 = SHAPE_DEFINITION_REPRESENTATION ( #137, #129 ) ;
#171 = EDGE_CURVE ( 'NONE', #92, #92, #85, .T. ) ;
#172 = FACE_OUTER_BOUND ( 'NONE', #175, .T. ) ;
#173 = CARTESIAN_POINT ( 'NONE',  ( 1.688804379057275670E-15, 0.8049999999999934985, 0.4836927983171875334 ) ) ;
#174 = DIRECTION ( 'NONE',  ( -3.491481338843133355E-15, 1.224646799147353207E-16, -1.000000000000000000 ) ) ;
#175 = EDGE_LOOP ( 'NONE', ( #215 ) ) ;
#176 = ORIENTED_EDGE ( 'NONE', *, *, #211, .T. ) ;
#177 = APPROVAL_ROLE ( '' ) ;
#178 = AXIS2_PLACEMENT_3D ( 'NONE', #153, #149, #205 ) ;
#179 = VERTEX_POINT ( 'NONE', #28 ) ;
#180 = APPROVAL_STATUS ( 'not_yet_approved' ) ;
#181 = CARTESIAN_POINT ( 'NONE',  ( 0.0000000000000000000, 0.0000000000000000000, 0.0000000000000000000 ) ) ;
#182 = PERSON_AND_ORGANIZATION ( #209, #33 ) ;
#183 = PLANE ( 'NONE',  #36 ) ;
#184 = AXIS2_PLACEMENT_3D ( 'NONE', #135, #117, #133 ) ;
#185 = DIRECTION ( 'NONE',  ( 0.0000000000000000000, 1.000000000000000000, 0.0000000000000000000 ) ) ;
#186 = CC_DESIGN_DATE_AND_TIME_ASSIGNMENT ( #76, #219, ( #5 ) ) ;
#187 = AXIS2_PLACEMENT_3D ( 'NONE', #37, #174, #93 ) ;
#188 = APPLICATION_PROTOCOL_DEFINITION ( 'international standard', 'config_control_design', 1994, #59 ) ;
#189 = AXIS2_PLACEMENT_3D ( 'NONE', #166, #19, #17 ) ;
#190 = DESIGN_CONTEXT ( 'detailed design', #70, 'design' ) ;
#191 = ADVANCED_FACE ( 'NONE', ( #34 ), #65, .T. ) ;
#192 = ORIENTED_EDGE ( 'NONE', *, *, #157, .F. ) ;
#193 = CARTESIAN_POINT ( 'NONE',  ( 4.189777606611760026E-14, 0.8049999999999949418, 12.00000000000000000 ) ) ;
#194 = ORIENTED_EDGE ( 'NONE', *, *, #50, .F. ) ;
#195 = EDGE_LOOP ( 'NONE', ( #22 ) ) ;
#196 = EDGE_LOOP ( 'NONE', ( #176 ) ) ;
#197 = PERSON_AND_ORGANIZATION ( #209, #33 ) ;
#198 = CARTESIAN_POINT ( 'NONE',  ( 4.307702356526584588E-14, 0.9999999999999954481, 12.33774990747594025 ) ) ;
#199 = CALENDAR_DATE ( 2021, 8, 10 ) ;
#200 = LOCAL_TIME ( 7, 15, 37.00000000000000000, #87 ) ;
#201 = ADVANCED_FACE ( 'NONE', ( #202, #136 ), #46, .T. ) ;
#202 = FACE_OUTER_BOUND ( 'NONE', #69, .T. ) ;
#203 = CALENDAR_DATE ( 2021, 8, 10 ) ;
#204 = CONICAL_SURFACE ( 'NONE', #187, 0.8000000000000009326, 0.7853981633974512766 ) ;
#205 = DIRECTION ( 'NONE',  ( 0.0000000000000000000, 1.000000000000000000, 0.0000000000000000000 ) ) ;
#206 = APPROVAL_PERSON_ORGANIZATION ( #57, #112, #177 ) ;
#207 = DATE_AND_TIME ( #138, #200 ) ;
#208 = CONICAL_SURFACE ( 'NONE', #104, 0.9999999999999970024, 0.5235987755982887126 ) ;
#209 = PERSON ( 'UNSPECIFIED', 'UNSPECIFIED', 'UNSPECIFIED', ('UNSPECIFIED'), ('UNSPECIFIED'), ('UNSPECIFIED') ) ;
#210 = DIRECTION ( 'NONE',  ( 0.0000000000000000000, 0.0000000000000000000, 1.000000000000000000 ) ) ;
#211 = EDGE_CURVE ( 'NONE', #10, #10, #20, .T. ) ;
#212 = AXIS2_PLACEMENT_3D ( 'NONE', #102, #163, #49 ) ;
#213 = DIRECTION ( 'NONE',  ( 0.0000000000000000000, -1.000000000000000000, 0.0000000000000000000 ) ) ;
#214 = CC_DESIGN_DATE_AND_TIME_ASSIGNMENT ( #115, #164, ( #21 ) ) ;
#215 = ORIENTED_EDGE ( 'NONE', *, *, #143, .F. ) ;
#216 = ORIENTED_EDGE ( 'NONE', *, *, #124, .F. ) ;
#217 = CC_DESIGN_SECURITY_CLASSIFICATION ( #5, ( #158 ) ) ;
#218 = FACE_BOUND ( 'NONE', #23, .T. ) ;
#219 = DATE_TIME_ROLE ( 'classification_date' ) ;
#220 = DIRECTION ( 'NONE',  ( 0.0000000000000000000, 1.000000000000000000, 0.0000000000000000000 ) ) ;
#221 = APPROVAL_DATE_TIME ( #148, #167 ) ;
#222 = FACE_OUTER_BOUND ( 'NONE', #73, .T. ) ;
#223 = PERSON_AND_ORGANIZATION ( #209, #33 ) ;
ENDSEC;
END-ISO-10303-21;
