ISO-10303-21;
HEADER;
FILE_DESCRIPTION (( 'STEP AP203' ),
    '1' );
FILE_NAME ('55412.step',
    '2021-10-08T05:15:36',
    ( '' ),
    ( '' ),
    'SwSTEP 2.0',
    'SolidWorks 2019',
    '' );
FILE_SCHEMA (( 'CONFIG_CONTROL_DESIGN' ));
ENDSEC;

DATA;
#1 = SHAPE_DEFINITION_REPRESENTATION ( #143, #42 ) ;
#2 = CARTESIAN_POINT ( 'NONE',  ( 1.326762908760390423E-13, -4.653657836759941941E-15, 38.00000000000000000 ) ) ;
#3 = DIRECTION ( 'NONE',  ( 4.275831445896958607E-31, 1.000000000000000000, 1.224646799147353207E-16 ) ) ;
#4 = FACE_OUTER_BOUND ( 'NONE', #15, .T. ) ;
#5 = AXIS2_PLACEMENT_3D ( 'NONE', #27, #150, #81 ) ;
#6 = CC_DESIGN_PERSON_AND_ORGANIZATION_ASSIGNMENT ( #36, #38, ( #221 ) ) ;
#7 = CIRCLE ( 'NONE', #5, 0.7999999999999936051 ) ;
#8 = DIRECTION ( 'NONE',  ( 3.491481338843133355E-15, -1.224646799147353207E-16, 1.000000000000000000 ) ) ;
#9 = DIRECTION ( 'NONE',  ( 1.000000000000000000, 0.0000000000000000000, 0.0000000000000000000 ) ) ;
#10 = APPROVAL_DATE_TIME ( #219, #103 ) ;
#11 = PERSON_AND_ORGANIZATION ( #131, #24 ) ;
#12 = CALENDAR_DATE ( 2021, 8, 10 ) ;
#13 = APPROVAL_DATE_TIME ( #117, #170 ) ;
#14 = AXIS2_PLACEMENT_3D ( 'NONE', #2, #130, #74 ) ;
#15 = EDGE_LOOP ( 'NONE', ( #51 ) ) ;
#16 = PERSON_AND_ORGANIZATION ( #131, #24 ) ;
#17 = APPROVAL_STATUS ( 'not_yet_approved' ) ;
#18 = CARTESIAN_POINT ( 'NONE',  ( 0.0000000000000000000, 0.0000000000000000000, 0.0000000000000000000 ) ) ;
#19 = LOCAL_TIME ( 7, 15, 36.00000000000000000, #47 ) ;
#20 = ORIENTED_EDGE ( 'NONE', *, *, #160, .T. ) ;
#21 = FACE_OUTER_BOUND ( 'NONE', #209, .T. ) ;
#22 = UNCERTAINTY_MEASURE_WITH_UNIT (LENGTH_MEASURE( 1.000000000000000082E-05 ), #187, 'distance_accuracy_value', 'NONE');
#23 = DIRECTION ( 'NONE',  ( -4.275831445896958607E-31, -1.000000000000000000, -1.224646799147353207E-16 ) ) ;
#24 = ORGANIZATION ( 'UNSPECIFIED', 'UNSPECIFIED', '' ) ;
#25 = DIRECTION ( 'NONE',  ( 0.0000000000000000000, 1.000000000000000000, 0.0000000000000000000 ) ) ;
#26 = CLOSED_SHELL ( 'NONE', ( #177, #69, #142 ) ) ;
#27 = CARTESIAN_POINT ( 'NONE',  ( 1.678314910864372992E-15, -5.886736270606407844E-17, 0.4806884952220496499 ) ) ;
#28 = DIRECTION ( 'NONE',  ( 0.0000000000000000000, 1.000000000000000000, 0.0000000000000000000 ) ) ;
#29 = CIRCLE ( 'NONE', #14, 0.8000000000000009326 ) ;
#30 = APPROVAL_ROLE ( '' ) ;
#31 = EDGE_LOOP ( 'NONE', ( #118 ) ) ;
#32 = EDGE_CURVE ( 'NONE', #147, #147, #223, .T. ) ;
#33 = PERSON_AND_ORGANIZATION_ROLE ( 'classification_officer' ) ;
#34 = CALENDAR_DATE ( 2021, 8, 10 ) ;
#35 = CC_DESIGN_SECURITY_CLASSIFICATION ( #129, ( #221 ) ) ;
#36 = PERSON_AND_ORGANIZATION ( #131, #24 ) ;
#37 = PLANE ( 'NONE',  #109 ) ;
#38 = PERSON_AND_ORGANIZATION_ROLE ( 'creator' ) ;
#39 = PLANE ( 'NONE',  #164 ) ;
#40 = CARTESIAN_POINT ( 'NONE',  ( 4.189777606611760026E-14, 5.999039130647369535E-33, 12.00000000000000000 ) ) ;
#41 = DIRECTION ( 'NONE',  ( 0.0000000000000000000, -1.000000000000000000, 0.0000000000000000000 ) ) ;
#42 = ADVANCED_BREP_SHAPE_REPRESENTATION ( '55412', ( #122, #198, #44 ), #217 ) ;
#43 = CARTESIAN_POINT ( 'NONE',  ( 1.326762908760390423E-13, 5.999039130647367482E-33, 38.00000000000000000 ) ) ;
#44 = AXIS2_PLACEMENT_3D ( 'NONE', #152, #113, #9 ) ;
#45 = VERTEX_POINT ( 'NONE', #66 ) ;
#46 = ADVANCED_FACE ( 'NONE', ( #62, #108 ), #63, .T. ) ;
#47 = COORDINATED_UNIVERSAL_TIME_OFFSET ( 1, 0, .AHEAD. ) ;
#48 = CARTESIAN_POINT ( 'NONE',  ( 4.310726068062860830E-14, 0.9999999999999954481, 12.34641016151378423 ) ) ;
#49 = AXIS2_PLACEMENT_3D ( 'NONE', #107, #179, #146 ) ;
#50 = EDGE_CURVE ( 'NONE', #45, #45, #29, .T. ) ;
#51 = ORIENTED_EDGE ( 'NONE', *, *, #204, .T. ) ;
#52 = APPLICATION_PROTOCOL_DEFINITION ( 'international standard', 'config_control_design', 1994, #218 ) ;
#53 = ORIENTED_EDGE ( 'NONE', *, *, #160, .F. ) ;
#54 = ADVANCED_FACE ( 'NONE', ( #89 ), #37, .F. ) ;
#55 = COORDINATED_UNIVERSAL_TIME_OFFSET ( 1, 0, .AHEAD. ) ;
#56 = AXIS2_PLACEMENT_3D ( 'NONE', #139, #189, #25 ) ;
#57 = DIRECTION ( 'NONE',  ( -3.491481338843133355E-15, 1.224646799147353207E-16, -1.000000000000000000 ) ) ;
#58 = CALENDAR_DATE ( 2021, 8, 10 ) ;
#59 = FACE_OUTER_BOUND ( 'NONE', #222, .T. ) ;
#60 = EDGE_LOOP ( 'NONE', ( #114 ) ) ;
#61 = LOCAL_TIME ( 7, 15, 36.00000000000000000, #220 ) ;
#62 = FACE_OUTER_BOUND ( 'NONE', #133, .T. ) ;
#63 = CONICAL_SURFACE ( 'NONE', #157, 0.8000000000000009326, 0.7853981633974512766 ) ;
#64 = ORIENTED_EDGE ( 'NONE', *, *, #32, .F. ) ;
#65 = CC_DESIGN_PERSON_AND_ORGANIZATION_ASSIGNMENT ( #101, #120, ( #221 ) ) ;
#66 = CARTESIAN_POINT ( 'NONE',  ( 1.326762908760390423E-13, 0.7999999999999962697, 38.00000000000000000 ) ) ;
#67 = DATE_TIME_ROLE ( 'creation_date' ) ;
#68 = CARTESIAN_POINT ( 'NONE',  ( 4.310726068062860830E-14, -1.511999168525820983E-15, 12.34641016151378423 ) ) ;
#69 = ADVANCED_FACE ( 'NONE', ( #21, #180 ), #156, .T. ) ;
#70 = CONICAL_SURFACE ( 'NONE', #202, 0.9999999999999970024, 0.5235987755982955960 ) ;
#71 = ORIENTED_EDGE ( 'NONE', *, *, #204, .F. ) ;
#72 = APPROVAL_PERSON_ORGANIZATION ( #153, #170, #155 ) ;
#73 = DIRECTION ( 'NONE',  ( 0.0000000000000000000, 1.000000000000000000, 0.0000000000000000000 ) ) ;
#74 = DIRECTION ( 'NONE',  ( 0.0000000000000000000, 1.000000000000000000, 0.0000000000000000000 ) ) ;
#75 = CARTESIAN_POINT ( 'NONE',  ( 4.310726068062860830E-14, -1.511999168525820983E-15, 12.34641016151378423 ) ) ;
#76 = DIRECTION ( 'NONE',  ( -4.275831445896958607E-31, -1.000000000000000000, -1.224646799147353207E-16 ) ) ;
#77 = DIRECTION ( 'NONE',  ( 3.491481338843133355E-15, -1.224646799147353207E-16, 1.000000000000000000 ) ) ;
#78 = VERTEX_POINT ( 'NONE', #91 ) ;
#79 = PERSON_AND_ORGANIZATION ( #131, #24 ) ;
#80 = LOCAL_TIME ( 7, 15, 36.00000000000000000, #93 ) ;
#81 = DIRECTION ( 'NONE',  ( 4.814824860968128168E-31, 1.000000000000000000, 1.355252715606891389E-16 ) ) ;
#82 = APPROVAL_STATUS ( 'not_yet_approved' ) ;
#83 = CARTESIAN_POINT ( 'NONE',  ( 4.189777606611760657E-14, 0.7999999999999933831, 12.00000000000000178 ) ) ;
#84 = AXIS2_PLACEMENT_3D ( 'NONE', #68, #169, #28 ) ;
#85 = ORIENTED_EDGE ( 'NONE', *, *, #214, .T. ) ;
#86 = FACE_OUTER_BOUND ( 'NONE', #31, .T. ) ;
#87 = CARTESIAN_POINT ( 'NONE',  ( 4.189777606611760026E-14, 5.999039130647369535E-33, 12.00000000000000000 ) ) ;
#88 = CC_DESIGN_PERSON_AND_ORGANIZATION_ASSIGNMENT ( #79, #132, ( #126 ) ) ;
#89 = FACE_OUTER_BOUND ( 'NONE', #211, .T. ) ;
#90 = CC_DESIGN_APPROVAL ( #103, ( #184 ) ) ;
#91 = CARTESIAN_POINT ( 'NONE',  ( 1.678314910864373387E-15, 0.7999999999999934941, 0.4806884952220497054 ) ) ;
#92 = CARTESIAN_POINT ( 'NONE',  ( 1.319779946082704535E-13, 0.9999999999999963363, 37.79999999999999716 ) ) ;
#93 = COORDINATED_UNIVERSAL_TIME_OFFSET ( 1, 0, .AHEAD. ) ;
#94 = ADVANCED_FACE ( 'NONE', ( #195 ), #39, .F. ) ;
#95 = LOCAL_TIME ( 7, 15, 36.00000000000000000, #55 ) ;
#96 = CALENDAR_DATE ( 2021, 8, 10 ) ;
#97 = VERTEX_POINT ( 'NONE', #83 ) ;
#98 = DATE_AND_TIME ( #123, #61 ) ;
#99 = AXIS2_PLACEMENT_3D ( 'NONE', #213, #216, #201 ) ;
#100 = CC_DESIGN_DATE_AND_TIME_ASSIGNMENT ( #167, #67, ( #184 ) ) ;
#101 = PERSON_AND_ORGANIZATION ( #131, #24 ) ;
#102 = EDGE_LOOP ( 'NONE', ( #141 ) ) ;
#103 = APPROVAL ( #197, 'UNSPECIFIED' ) ;
#104 = CIRCLE ( 'NONE', #99, 0.7999999999999949374 ) ;
#105 = FACE_OUTER_BOUND ( 'NONE', #102, .T. ) ;
#106 = DIRECTION ( 'NONE',  ( -3.491481338843133355E-15, 1.224646799147353207E-16, -1.000000000000000000 ) ) ;
#107 = CARTESIAN_POINT ( 'NONE',  ( 1.678314910864372992E-15, -5.886736270606407844E-17, 0.4806884952220496499 ) ) ;
#108 = FACE_BOUND ( 'NONE', #186, .T. ) ;
#109 = AXIS2_PLACEMENT_3D ( 'NONE', #40, #188, #76 ) ;
#110 = DESIGN_CONTEXT ( 'detailed design', #173, 'design' ) ;
#111 = PERSON_AND_ORGANIZATION_ROLE ( 'creator' ) ;
#112 = AXIS2_PLACEMENT_3D ( 'NONE', #18, #57, #3 ) ;
#113 = DIRECTION ( 'NONE',  ( 0.0000000000000000000, 0.0000000000000000000, 1.000000000000000000 ) ) ;
#114 = ORIENTED_EDGE ( 'NONE', *, *, #32, .T. ) ;
#115 = MECHANICAL_CONTEXT ( 'NONE', #218, 'mechanical' ) ;
#116 = CC_DESIGN_PERSON_AND_ORGANIZATION_ASSIGNMENT ( #16, #33, ( #129 ) ) ;
#117 = DATE_AND_TIME ( #58, #95 ) ;
#118 = ORIENTED_EDGE ( 'NONE', *, *, #214, .F. ) ;
#119 = CONICAL_SURFACE ( 'NONE', #49, 0.7999999999999936051, 1.029744258676649649 ) ;
#120 = PERSON_AND_ORGANIZATION_ROLE ( 'design_supplier' ) ;
#121 = DIRECTION ( 'NONE',  ( 4.275831445896957731E-31, 1.000000000000000000, 1.224646799147353454E-16 ) ) ;
#122 = MANIFOLD_SOLID_BREP ( 'Corps-Déplacer/Copier1[1]', #192 ) ;
#123 = CALENDAR_DATE ( 2021, 8, 10 ) ;
#124 = DIRECTION ( 'NONE',  ( 4.275831445896958607E-31, 1.000000000000000000, 1.224646799147353207E-16 ) ) ;
#125 = EDGE_LOOP ( 'NONE', ( #172 ) ) ;
#126 = PRODUCT ( '55412', '55412', '', ( #115 ) ) ;
#127 = ORIENTED_EDGE ( 'NONE', *, *, #50, .T. ) ;
#128 = AXIS2_PLACEMENT_3D ( 'NONE', #191, #158, #73 ) ;
#129 = SECURITY_CLASSIFICATION ( '', '', #207 ) ;
#130 = DIRECTION ( 'NONE',  ( -3.491481338843133355E-15, 1.224646799147353207E-16, -1.000000000000000000 ) ) ;
#131 = PERSON ( 'UNSPECIFIED', 'UNSPECIFIED', 'UNSPECIFIED', ('UNSPECIFIED'), ('UNSPECIFIED'), ('UNSPECIFIED') ) ;
#132 = PERSON_AND_ORGANIZATION_ROLE ( 'design_owner' ) ;
#133 = EDGE_LOOP ( 'NONE', ( #64 ) ) ;
#134 = CC_DESIGN_DATE_AND_TIME_ASSIGNMENT ( #174, #205, ( #129 ) ) ;
#135 = EDGE_LOOP ( 'NONE', ( #53 ) ) ;
#136 = APPROVAL_DATE_TIME ( #98, #208 ) ;
#137 = FACE_OUTER_BOUND ( 'NONE', #60, .T. ) ;
#138 = CYLINDRICAL_SURFACE ( 'NONE', #185, 0.9999999999999988898 ) ;
#139 = CARTESIAN_POINT ( 'NONE',  ( 4.189777606611760657E-14, -1.469576158976824144E-15, 12.00000000000000178 ) ) ;
#140 = CC_DESIGN_APPROVAL ( #208, ( #221 ) ) ;
#141 = ORIENTED_EDGE ( 'NONE', *, *, #194, .F. ) ;
#142 = ADVANCED_FACE ( 'NONE', ( #105 ), #176, .T. ) ;
#143 = PRODUCT_DEFINITION_SHAPE ( 'NONE', 'NONE',  #184 ) ;
#144 = ADVANCED_FACE ( 'NONE', ( #86, #137 ), #138, .T. ) ;
#145 = LOCAL_TIME ( 7, 15, 36.00000000000000000, #171 ) ;
#146 = DIRECTION ( 'NONE',  ( -4.814824860968128168E-31, -1.000000000000000000, -1.355252715606891389E-16 ) ) ;
#147 = VERTEX_POINT ( 'NONE', #92 ) ;
#148 = AXIS2_PLACEMENT_3D ( 'NONE', #87, #8, #23 ) ;
#149 = ADVANCED_FACE ( 'NONE', ( #159, #59 ), #70, .T. ) ;
#150 = DIRECTION ( 'NONE',  ( -3.491481338843133355E-15, 1.224646799147353207E-16, -1.000000000000000000 ) ) ;
#151 = APPROVAL_ROLE ( '' ) ;
#152 = CARTESIAN_POINT ( 'NONE',  ( 0.0000000000000000000, 0.0000000000000000000, 0.0000000000000000000 ) ) ;
#153 = PERSON_AND_ORGANIZATION ( #131, #24 ) ;
#154 = ORIENTED_EDGE ( 'NONE', *, *, #50, .F. ) ;
#155 = APPROVAL_ROLE ( '' ) ;
#156 = CYLINDRICAL_SURFACE ( 'NONE', #112, 0.7999999999999942712 ) ;
#157 = AXIS2_PLACEMENT_3D ( 'NONE', #206, #106, #178 ) ;
#158 = DIRECTION ( 'NONE',  ( -3.491481338843133355E-15, 1.224646799147353207E-16, -1.000000000000000000 ) ) ;
#159 = FACE_BOUND ( 'NONE', #135, .T. ) ;
#160 = EDGE_CURVE ( 'NONE', #97, #97, #181, .T. ) ;
#161 = EDGE_LOOP ( 'NONE', ( #154 ) ) ;
#162 = PRODUCT_RELATED_PRODUCT_CATEGORY ( 'detail', '', ( #126 ) ) ;
#163 = CARTESIAN_POINT ( 'NONE',  ( 0.0000000000000000000, 0.0000000000000000000, 0.0000000000000000000 ) ) ;
#164 = AXIS2_PLACEMENT_3D ( 'NONE', #43, #175, #124 ) ;
#165 =( NAMED_UNIT ( * ) SI_UNIT ( $, .STERADIAN. ) SOLID_ANGLE_UNIT ( ) );
#166 = VERTEX_POINT ( 'NONE', #48 ) ;
#167 = DATE_AND_TIME ( #96, #80 ) ;
#168 = APPROVAL_PERSON_ORGANIZATION ( #11, #208, #151 ) ;
#169 = DIRECTION ( 'NONE',  ( -3.491481338843133355E-15, 1.224646799147353207E-16, -1.000000000000000000 ) ) ;
#170 = APPROVAL ( #17, 'UNSPECIFIED' ) ;
#171 = COORDINATED_UNIVERSAL_TIME_OFFSET ( 1, 0, .AHEAD. ) ;
#172 = ORIENTED_EDGE ( 'NONE', *, *, #194, .T. ) ;
#173 = APPLICATION_CONTEXT ( 'configuration controlled 3d designs of mechanical parts and assemblies' ) ;
#174 = DATE_AND_TIME ( #34, #145 ) ;
#175 = DIRECTION ( 'NONE',  ( -3.491481338843133355E-15, 1.224646799147353207E-16, -1.000000000000000000 ) ) ;
#176 = PLANE ( 'NONE',  #148 ) ;
#177 = ADVANCED_FACE ( 'NONE', ( #4 ), #119, .T. ) ;
#178 = DIRECTION ( 'NONE',  ( 0.0000000000000000000, 1.000000000000000000, 0.0000000000000000000 ) ) ;
#179 = DIRECTION ( 'NONE',  ( 3.491481338843133355E-15, -1.224646799147353207E-16, 1.000000000000000000 ) ) ;
#180 = FACE_OUTER_BOUND ( 'NONE', #125, .T. ) ;
#181 = CIRCLE ( 'NONE', #56, 0.7999999999999949374 ) ;
#182 = PERSON_AND_ORGANIZATION ( #131, #24 ) ;
#183 = PERSON_AND_ORGANIZATION ( #131, #24 ) ;
#184 = PRODUCT_DEFINITION ( 'UNKNOWN', '', #221, #110 ) ;
#185 = AXIS2_PLACEMENT_3D ( 'NONE', #163, #193, #121 ) ;
#186 = EDGE_LOOP ( 'NONE', ( #127 ) ) ;
#187 =( LENGTH_UNIT ( ) NAMED_UNIT ( * ) SI_UNIT ( .MILLI., .METRE. ) );
#188 = DIRECTION ( 'NONE',  ( 3.491481338843133355E-15, -1.224646799147353207E-16, 1.000000000000000000 ) ) ;
#189 = DIRECTION ( 'NONE',  ( -3.491481338843133355E-15, 1.224646799147353207E-16, -1.000000000000000000 ) ) ;
#190 = CC_DESIGN_APPROVAL ( #170, ( #129 ) ) ;
#191 = CARTESIAN_POINT ( 'NONE',  ( 1.319779946082704535E-13, -4.629164900776995227E-15, 37.79999999999999716 ) ) ;
#192 = CLOSED_SHELL ( 'NONE', ( #54, #149, #144, #46, #94 ) ) ;
#193 = DIRECTION ( 'NONE',  ( -3.491481338843133355E-15, 1.224646799147353207E-16, -1.000000000000000000 ) ) ;
#194 = EDGE_CURVE ( 'NONE', #199, #199, #104, .T. ) ;
#195 = FACE_OUTER_BOUND ( 'NONE', #161, .T. ) ;
#196 = APPLICATION_PROTOCOL_DEFINITION ( 'international standard', 'config_control_design', 1994, #173 ) ;
#197 = APPROVAL_STATUS ( 'not_yet_approved' ) ;
#198 = MANIFOLD_SOLID_BREP ( 'Corps-Déplacer/Copier1[2]', #26 ) ;
#199 = VERTEX_POINT ( 'NONE', #215 ) ;
#200 = CC_DESIGN_PERSON_AND_ORGANIZATION_ASSIGNMENT ( #183, #111, ( #184 ) ) ;
#201 = DIRECTION ( 'NONE',  ( 0.0000000000000000000, 1.000000000000000000, 0.0000000000000000000 ) ) ;
#202 = AXIS2_PLACEMENT_3D ( 'NONE', #75, #77, #41 ) ;
#203 =( NAMED_UNIT ( * ) PLANE_ANGLE_UNIT ( ) SI_UNIT ( $, .RADIAN. ) );
#204 = EDGE_CURVE ( 'NONE', #78, #78, #7, .T. ) ;
#205 = DATE_TIME_ROLE ( 'classification_date' ) ;
#206 = CARTESIAN_POINT ( 'NONE',  ( 1.326762908760390423E-13, -4.653657836759941941E-15, 38.00000000000000000 ) ) ;
#207 = SECURITY_CLASSIFICATION_LEVEL ( 'unclassified' ) ;
#208 = APPROVAL ( #82, 'UNSPECIFIED' ) ;
#209 = EDGE_LOOP ( 'NONE', ( #71 ) ) ;
#210 = APPROVAL_PERSON_ORGANIZATION ( #182, #103, #30 ) ;
#211 = EDGE_LOOP ( 'NONE', ( #20 ) ) ;
#212 = CIRCLE ( 'NONE', #84, 0.9999999999999970024 ) ;
#213 = CARTESIAN_POINT ( 'NONE',  ( 4.189777606611760657E-14, -1.469576158976824144E-15, 12.00000000000000178 ) ) ;
#214 = EDGE_CURVE ( 'NONE', #166, #166, #212, .T. ) ;
#215 = CARTESIAN_POINT ( 'NONE',  ( 4.189777606611760657E-14, 0.7999999999999933831, 12.00000000000000178 ) ) ;
#216 = DIRECTION ( 'NONE',  ( -3.491481338843133355E-15, 1.224646799147353207E-16, -1.000000000000000000 ) ) ;
#217 =( GEOMETRIC_REPRESENTATION_CONTEXT ( 3 ) GLOBAL_UNCERTAINTY_ASSIGNED_CONTEXT ( ( #22 ) ) GLOBAL_UNIT_ASSIGNED_CONTEXT ( ( #187, #203, #165 ) ) REPRESENTATION_CONTEXT ( 'NONE', 'WORKASPACE' ) );
#218 = APPLICATION_CONTEXT ( 'configuration controlled 3d designs of mechanical parts and assemblies' ) ;
#219 = DATE_AND_TIME ( #12, #19 ) ;
#220 = COORDINATED_UNIVERSAL_TIME_OFFSET ( 1, 0, .AHEAD. ) ;
#221 = PRODUCT_DEFINITION_FORMATION_WITH_SPECIFIED_SOURCE ( 'ANY', '', #126, .NOT_KNOWN. ) ;
#222 = EDGE_LOOP ( 'NONE', ( #85 ) ) ;
#223 = CIRCLE ( 'NONE', #128, 1.000000000000000888 ) ;
ENDSEC;
END-ISO-10303-21;
