ISO-10303-21;
HEADER;
FILE_DESCRIPTION (( 'STEP AP203' ),
    '1' );
FILE_NAME ('55410.step',
    '2021-10-08T05:15:35',
    ( '' ),
    ( '' ),
    'SwSTEP 2.0',
    'SolidWorks 2019',
    '' );
FILE_SCHEMA (( 'CONFIG_CONTROL_DESIGN' ));
ENDSEC;

DATA;
#1 = DIRECTION ( 'NONE',  ( 0.0000000000000000000, 1.000000000000000000, 0.0000000000000000000 ) ) ;
#2 = CARTESIAN_POINT ( 'NONE',  ( 1.657335974478568032E-15, -5.813152067223827761E-17, 0.4746798890317739383 ) ) ;
#3 = CARTESIAN_POINT ( 'NONE',  ( 4.189777606611760657E-14, -1.469576158976824144E-15, 12.00000000000000178 ) ) ;
#4 = AXIS2_PLACEMENT_3D ( 'NONE', #135, #45, #1 ) ;
#5 = DIRECTION ( 'NONE',  ( 3.491481338843133355E-15, -1.224646799147353207E-16, 1.000000000000000000 ) ) ;
#6 = ADVANCED_FACE ( 'NONE', ( #54, #82 ), #85, .T. ) ;
#7 = CALENDAR_DATE ( 2021, 8, 10 ) ;
#8 = CC_DESIGN_PERSON_AND_ORGANIZATION_ASSIGNMENT ( #218, #96, ( #214 ) ) ;
#9 = DATE_AND_TIME ( #41, #80 ) ;
#10 = APPROVAL_DATE_TIME ( #40, #148 ) ;
#11 = PERSON_AND_ORGANIZATION_ROLE ( 'design_owner' ) ;
#12 = CC_DESIGN_APPROVAL ( #66, ( #214 ) ) ;
#13 = EDGE_LOOP ( 'NONE', ( #51 ) ) ;
#14 = FACE_OUTER_BOUND ( 'NONE', #86, .T. ) ;
#15 = AXIS2_PLACEMENT_3D ( 'NONE', #27, #102, #100 ) ;
#16 = FACE_BOUND ( 'NONE', #223, .T. ) ;
#17 = CARTESIAN_POINT ( 'NONE',  ( 1.326762908760390423E-13, -4.653657836759941941E-15, 38.00000000000000000 ) ) ;
#18 = FACE_OUTER_BOUND ( 'NONE', #13, .T. ) ;
#19 = CYLINDRICAL_SURFACE ( 'NONE', #63, 0.7899999999999940403 ) ;
#20 = AXIS2_PLACEMENT_3D ( 'NONE', #174, #176, #21 ) ;
#21 = DIRECTION ( 'NONE',  ( 1.000000000000000000, 0.0000000000000000000, 0.0000000000000000000 ) ) ;
#22 = DIRECTION ( 'NONE',  ( 4.275831445896958607E-31, 1.000000000000000000, 1.224646799147353207E-16 ) ) ;
#23 =( GEOMETRIC_REPRESENTATION_CONTEXT ( 3 ) GLOBAL_UNCERTAINTY_ASSIGNED_CONTEXT ( ( #97 ) ) GLOBAL_UNIT_ASSIGNED_CONTEXT ( ( #172, #175, #108 ) ) REPRESENTATION_CONTEXT ( 'NONE', 'WORKASPACE' ) );
#24 = PERSON_AND_ORGANIZATION_ROLE ( 'design_supplier' ) ;
#25 = ORIENTED_EDGE ( 'NONE', *, *, #29, .F. ) ;
#26 = AXIS2_PLACEMENT_3D ( 'NONE', #28, #119, #188 ) ;
#27 = CARTESIAN_POINT ( 'NONE',  ( 1.657335974478568032E-15, -5.813152067223827761E-17, 0.4746798890317739383 ) ) ;
#28 = CARTESIAN_POINT ( 'NONE',  ( 4.316773491135416470E-14, -1.514120319003271269E-15, 12.36373066958947398 ) ) ;
#29 = EDGE_CURVE ( 'NONE', #71, #71, #180, .T. ) ;
#30 = ORIENTED_EDGE ( 'NONE', *, *, #44, .F. ) ;
#31 = DIRECTION ( 'NONE',  ( -3.491481338843133355E-15, 1.224646799147353207E-16, -1.000000000000000000 ) ) ;
#32 = CARTESIAN_POINT ( 'NONE',  ( 4.189777606611760026E-14, 5.924051141514273370E-33, 12.00000000000000000 ) ) ;
#33 = CARTESIAN_POINT ( 'NONE',  ( 1.326762908760390423E-13, 5.999039130647367482E-33, 38.00000000000000000 ) ) ;
#34 = DIRECTION ( 'NONE',  ( -4.275831445896958607E-31, -1.000000000000000000, -1.224646799147353207E-16 ) ) ;
#35 = MANIFOLD_SOLID_BREP ( 'Corps-Déplacer/Copier1[1]', #152 ) ;
#36 = FACE_OUTER_BOUND ( 'NONE', #186, .T. ) ;
#37 = CARTESIAN_POINT ( 'NONE',  ( 4.316773491135416470E-14, 0.9999999999999954481, 12.36373066958947398 ) ) ;
#38 = COORDINATED_UNIVERSAL_TIME_OFFSET ( 1, 0, .AHEAD. ) ;
#39 = AXIS2_PLACEMENT_3D ( 'NONE', #17, #87, #106 ) ;
#40 = DATE_AND_TIME ( #181, #173 ) ;
#41 = CALENDAR_DATE ( 2021, 8, 10 ) ;
#42 = APPROVAL_ROLE ( '' ) ;
#43 = PERSON_AND_ORGANIZATION ( #187, #111 ) ;
#44 = EDGE_CURVE ( 'NONE', #58, #58, #129, .T. ) ;
#45 = DIRECTION ( 'NONE',  ( -3.491481338843133355E-15, 1.224646799147353207E-16, -1.000000000000000000 ) ) ;
#46 = APPROVAL_PERSON_ORGANIZATION ( #60, #148, #42 ) ;
#47 = CC_DESIGN_SECURITY_CLASSIFICATION ( #61, ( #211 ) ) ;
#48 = EDGE_LOOP ( 'NONE', ( #30 ) ) ;
#49 = EDGE_CURVE ( 'NONE', #125, #125, #107, .T. ) ;
#50 = EDGE_LOOP ( 'NONE', ( #207 ) ) ;
#51 = ORIENTED_EDGE ( 'NONE', *, *, #49, .F. ) ;
#52 = APPROVAL_PERSON_ORGANIZATION ( #79, #66, #178 ) ;
#53 = CC_DESIGN_APPROVAL ( #148, ( #61 ) ) ;
#54 = FACE_BOUND ( 'NONE', #210, .T. ) ;
#55 = EDGE_CURVE ( 'NONE', #195, #195, #99, .T. ) ;
#56 = CARTESIAN_POINT ( 'NONE',  ( 0.0000000000000000000, 0.0000000000000000000, 0.0000000000000000000 ) ) ;
#57 = FACE_OUTER_BOUND ( 'NONE', #48, .T. ) ;
#58 = VERTEX_POINT ( 'NONE', #158 ) ;
#59 = PERSON_AND_ORGANIZATION ( #187, #111 ) ;
#60 = PERSON_AND_ORGANIZATION ( #187, #111 ) ;
#61 = SECURITY_CLASSIFICATION ( '', '', #144 ) ;
#62 = CC_DESIGN_PERSON_AND_ORGANIZATION_ASSIGNMENT ( #114, #95, ( #61 ) ) ;
#63 = AXIS2_PLACEMENT_3D ( 'NONE', #56, #91, #92 ) ;
#64 = CARTESIAN_POINT ( 'NONE',  ( 1.319779946082704535E-13, -4.629164900776995227E-15, 37.79999999999999716 ) ) ;
#65 = AXIS2_PLACEMENT_3D ( 'NONE', #33, #191, #22 ) ;
#66 = APPROVAL ( #177, 'UNSPECIFIED' ) ;
#67 = CARTESIAN_POINT ( 'NONE',  ( 4.189777606611760026E-14, 5.924051141514273370E-33, 12.00000000000000000 ) ) ;
#68 = DIRECTION ( 'NONE',  ( 0.0000000000000000000, -1.000000000000000000, 0.0000000000000000000 ) ) ;
#69 = EDGE_CURVE ( 'NONE', #109, #109, #166, .T. ) ;
#70 = AXIS2_PLACEMENT_3D ( 'NONE', #153, #74, #196 ) ;
#71 = VERTEX_POINT ( 'NONE', #123 ) ;
#72 = PRODUCT_DEFINITION_SHAPE ( 'NONE', 'NONE',  #214 ) ;
#73 = AXIS2_PLACEMENT_3D ( 'NONE', #64, #138, #168 ) ;
#74 = DIRECTION ( 'NONE',  ( -3.491481338843133355E-15, 1.224646799147353207E-16, -1.000000000000000000 ) ) ;
#75 = VERTEX_POINT ( 'NONE', #192 ) ;
#76 = DATE_TIME_ROLE ( 'creation_date' ) ;
#77 = APPROVAL_STATUS ( 'not_yet_approved' ) ;
#78 = AXIS2_PLACEMENT_3D ( 'NONE', #184, #31, #151 ) ;
#79 = PERSON_AND_ORGANIZATION ( #187, #111 ) ;
#80 = LOCAL_TIME ( 7, 15, 35.00000000000000000, #131 ) ;
#81 = ORIENTED_EDGE ( 'NONE', *, *, #55, .T. ) ;
#82 = FACE_OUTER_BOUND ( 'NONE', #182, .T. ) ;
#83 = CC_DESIGN_DATE_AND_TIME_ASSIGNMENT ( #216, #179, ( #61 ) ) ;
#84 = DIRECTION ( 'NONE',  ( 3.491481338843133355E-15, -1.224646799147353207E-16, 1.000000000000000000 ) ) ;
#85 = CONICAL_SURFACE ( 'NONE', #127, 0.9999999999999970024, 0.5235987755982947078 ) ;
#86 = EDGE_LOOP ( 'NONE', ( #101 ) ) ;
#87 = DIRECTION ( 'NONE',  ( -3.491481338843133355E-15, 1.224646799147353207E-16, -1.000000000000000000 ) ) ;
#88 = DIRECTION ( 'NONE',  ( 0.0000000000000000000, 1.000000000000000000, 0.0000000000000000000 ) ) ;
#89 = PRODUCT ( '55410', '55410', '', ( #159 ) ) ;
#90 = LOCAL_TIME ( 7, 15, 35.00000000000000000, #38 ) ;
#91 = DIRECTION ( 'NONE',  ( -3.491481338843133355E-15, 1.224646799147353207E-16, -1.000000000000000000 ) ) ;
#92 = DIRECTION ( 'NONE',  ( 4.275831445896958607E-31, 1.000000000000000000, 1.224646799147353454E-16 ) ) ;
#93 = CIRCLE ( 'NONE', #205, 0.7899999999999944844 ) ;
#94 = CARTESIAN_POINT ( 'NONE',  ( 4.189777606611760657E-14, 0.7899999999999929301, 12.00000000000000178 ) ) ;
#95 = PERSON_AND_ORGANIZATION_ROLE ( 'classification_officer' ) ;
#96 = PERSON_AND_ORGANIZATION_ROLE ( 'creator' ) ;
#97 = UNCERTAINTY_MEASURE_WITH_UNIT (LENGTH_MEASURE( 1.000000000000000082E-05 ), #172, 'distance_accuracy_value', 'NONE');
#98 = ORIENTED_EDGE ( 'NONE', *, *, #49, .T. ) ;
#99 = CIRCLE ( 'NONE', #78, 0.7899999999999944844 ) ;
#100 = DIRECTION ( 'NONE',  ( 4.875772011106965988E-31, 1.000000000000000000, 1.372407813272801619E-16 ) ) ;
#101 = ORIENTED_EDGE ( 'NONE', *, *, #55, .F. ) ;
#102 = DIRECTION ( 'NONE',  ( -3.491481338843133355E-15, 1.224646799147353207E-16, -1.000000000000000000 ) ) ;
#103 = AXIS2_PLACEMENT_3D ( 'NONE', #2, #84, #120 ) ;
#104 = ADVANCED_FACE ( 'NONE', ( #136 ), #202, .T. ) ;
#105 = ORIENTED_EDGE ( 'NONE', *, *, #69, .F. ) ;
#106 = DIRECTION ( 'NONE',  ( 0.0000000000000000000, 1.000000000000000000, 0.0000000000000000000 ) ) ;
#107 = CIRCLE ( 'NONE', #26, 0.9999999999999970024 ) ;
#108 =( NAMED_UNIT ( * ) SI_UNIT ( $, .STERADIAN. ) SOLID_ANGLE_UNIT ( ) );
#109 = VERTEX_POINT ( 'NONE', #139 ) ;
#110 = ADVANCED_FACE ( 'NONE', ( #14 ), #149, .T. ) ;
#111 = ORGANIZATION ( 'UNSPECIFIED', 'UNSPECIFIED', '' ) ;
#112 = PERSON_AND_ORGANIZATION_ROLE ( 'creator' ) ;
#113 = SHAPE_DEFINITION_REPRESENTATION ( #72, #203 ) ;
#114 = PERSON_AND_ORGANIZATION ( #187, #111 ) ;
#115 = MANIFOLD_SOLID_BREP ( 'Corps-Déplacer/Copier1[2]', #132 ) ;
#116 = DATE_AND_TIME ( #161, #90 ) ;
#117 = DATE_AND_TIME ( #133, #222 ) ;
#118 = CC_DESIGN_PERSON_AND_ORGANIZATION_ASSIGNMENT ( #43, #24, ( #211 ) ) ;
#119 = DIRECTION ( 'NONE',  ( -3.491481338843133355E-15, 1.224646799147353207E-16, -1.000000000000000000 ) ) ;
#120 = DIRECTION ( 'NONE',  ( -4.875772011106965988E-31, -1.000000000000000000, -1.372407813272801619E-16 ) ) ;
#121 = FACE_OUTER_BOUND ( 'NONE', #167, .T. ) ;
#122 = EDGE_LOOP ( 'NONE', ( #81 ) ) ;
#123 = CARTESIAN_POINT ( 'NONE',  ( 1.319779946082704535E-13, 0.9999999999999963363, 37.79999999999999716 ) ) ;
#124 = PLANE ( 'NONE',  #189 ) ;
#125 = VERTEX_POINT ( 'NONE', #37 ) ;
#126 = ADVANCED_FACE ( 'NONE', ( #121, #16 ), #163, .T. ) ;
#127 = AXIS2_PLACEMENT_3D ( 'NONE', #147, #208, #68 ) ;
#128 = APPROVAL_ROLE ( '' ) ;
#129 = CIRCLE ( 'NONE', #4, 0.8000000000000009326 ) ;
#130 = APPROVAL_STATUS ( 'not_yet_approved' ) ;
#131 = COORDINATED_UNIVERSAL_TIME_OFFSET ( 1, 0, .AHEAD. ) ;
#132 = CLOSED_SHELL ( 'NONE', ( #104, #143, #110 ) ) ;
#133 = CALENDAR_DATE ( 2021, 8, 10 ) ;
#134 = CC_DESIGN_DATE_AND_TIME_ASSIGNMENT ( #9, #76, ( #214 ) ) ;
#135 = CARTESIAN_POINT ( 'NONE',  ( 1.326762908760390423E-13, -4.653657836759941941E-15, 38.00000000000000000 ) ) ;
#136 = FACE_OUTER_BOUND ( 'NONE', #50, .T. ) ;
#137 = DIRECTION ( 'NONE',  ( -4.275831445896958607E-31, -1.000000000000000000, -1.224646799147353207E-16 ) ) ;
#138 = DIRECTION ( 'NONE',  ( -3.491481338843133355E-15, 1.224646799147353207E-16, -1.000000000000000000 ) ) ;
#139 = CARTESIAN_POINT ( 'NONE',  ( 1.657335974478568426E-15, 0.7899999999999934852, 0.4746798890317739938 ) ) ;
#140 = FACE_OUTER_BOUND ( 'NONE', #185, .T. ) ;
#141 = PERSON_AND_ORGANIZATION ( #187, #111 ) ;
#142 = AXIS2_PLACEMENT_3D ( 'NONE', #67, #170, #137 ) ;
#143 = ADVANCED_FACE ( 'NONE', ( #140, #156 ), #19, .T. ) ;
#144 = SECURITY_CLASSIFICATION_LEVEL ( 'unclassified' ) ;
#145 = APPLICATION_PROTOCOL_DEFINITION ( 'international standard', 'config_control_design', 1994, #183 ) ;
#146 = ADVANCED_FACE ( 'NONE', ( #213 ), #124, .F. ) ;
#147 = CARTESIAN_POINT ( 'NONE',  ( 4.316773491135416470E-14, -1.514120319003271269E-15, 12.36373066958947398 ) ) ;
#148 = APPROVAL ( #130, 'UNSPECIFIED' ) ;
#149 = PLANE ( 'NONE',  #142 ) ;
#150 = ORIENTED_EDGE ( 'NONE', *, *, #162, .T. ) ;
#151 = DIRECTION ( 'NONE',  ( 0.0000000000000000000, 1.000000000000000000, 0.0000000000000000000 ) ) ;
#152 = CLOSED_SHELL ( 'NONE', ( #146, #6, #206, #126, #165 ) ) ;
#153 = CARTESIAN_POINT ( 'NONE',  ( 0.0000000000000000000, 0.0000000000000000000, 0.0000000000000000000 ) ) ;
#154 = CC_DESIGN_APPROVAL ( #199, ( #211 ) ) ;
#155 = APPLICATION_PROTOCOL_DEFINITION ( 'international standard', 'config_control_design', 1994, #215 ) ;
#156 = FACE_OUTER_BOUND ( 'NONE', #122, .T. ) ;
#157 = PRODUCT_RELATED_PRODUCT_CATEGORY ( 'detail', '', ( #89 ) ) ;
#158 = CARTESIAN_POINT ( 'NONE',  ( 1.326762908760390423E-13, 0.7999999999999962697, 38.00000000000000000 ) ) ;
#159 = MECHANICAL_CONTEXT ( 'NONE', #215, 'mechanical' ) ;
#160 = COORDINATED_UNIVERSAL_TIME_OFFSET ( 1, 0, .AHEAD. ) ;
#161 = CALENDAR_DATE ( 2021, 8, 10 ) ;
#162 = EDGE_CURVE ( 'NONE', #75, #75, #93, .T. ) ;
#163 = CONICAL_SURFACE ( 'NONE', #39, 0.8000000000000009326, 0.7853981633974512766 ) ;
#164 = COORDINATED_UNIVERSAL_TIME_OFFSET ( 1, 0, .AHEAD. ) ;
#165 = ADVANCED_FACE ( 'NONE', ( #57 ), #171, .F. ) ;
#166 = CIRCLE ( 'NONE', #15, 0.7899999999999935962 ) ;
#167 = EDGE_LOOP ( 'NONE', ( #25 ) ) ;
#168 = DIRECTION ( 'NONE',  ( 0.0000000000000000000, 1.000000000000000000, 0.0000000000000000000 ) ) ;
#169 = DESIGN_CONTEXT ( 'detailed design', #183, 'design' ) ;
#170 = DIRECTION ( 'NONE',  ( 3.491481338843133355E-15, -1.224646799147353207E-16, 1.000000000000000000 ) ) ;
#171 = PLANE ( 'NONE',  #65 ) ;
#172 =( LENGTH_UNIT ( ) NAMED_UNIT ( * ) SI_UNIT ( .MILLI., .METRE. ) );
#173 = LOCAL_TIME ( 7, 15, 35.00000000000000000, #200 ) ;
#174 = CARTESIAN_POINT ( 'NONE',  ( 0.0000000000000000000, 0.0000000000000000000, 0.0000000000000000000 ) ) ;
#175 =( NAMED_UNIT ( * ) PLANE_ANGLE_UNIT ( ) SI_UNIT ( $, .RADIAN. ) );
#176 = DIRECTION ( 'NONE',  ( 0.0000000000000000000, 0.0000000000000000000, 1.000000000000000000 ) ) ;
#177 = APPROVAL_STATUS ( 'not_yet_approved' ) ;
#178 = APPROVAL_ROLE ( '' ) ;
#179 = DATE_TIME_ROLE ( 'classification_date' ) ;
#180 = CIRCLE ( 'NONE', #73, 1.000000000000000888 ) ;
#181 = CALENDAR_DATE ( 2021, 8, 10 ) ;
#182 = EDGE_LOOP ( 'NONE', ( #98 ) ) ;
#183 = APPLICATION_CONTEXT ( 'configuration controlled 3d designs of mechanical parts and assemblies' ) ;
#184 = CARTESIAN_POINT ( 'NONE',  ( 4.189777606611760657E-14, -1.469576158976824144E-15, 12.00000000000000178 ) ) ;
#185 = EDGE_LOOP ( 'NONE', ( #105 ) ) ;
#186 = EDGE_LOOP ( 'NONE', ( #221 ) ) ;
#187 = PERSON ( 'UNSPECIFIED', 'UNSPECIFIED', 'UNSPECIFIED', ('UNSPECIFIED'), ('UNSPECIFIED'), ('UNSPECIFIED') ) ;
#188 = DIRECTION ( 'NONE',  ( 0.0000000000000000000, 1.000000000000000000, 0.0000000000000000000 ) ) ;
#189 = AXIS2_PLACEMENT_3D ( 'NONE', #32, #5, #34 ) ;
#190 = CC_DESIGN_PERSON_AND_ORGANIZATION_ASSIGNMENT ( #141, #11, ( #89 ) ) ;
#191 = DIRECTION ( 'NONE',  ( -3.491481338843133355E-15, 1.224646799147353207E-16, -1.000000000000000000 ) ) ;
#192 = CARTESIAN_POINT ( 'NONE',  ( 4.189777606611760657E-14, 0.7899999999999929301, 12.00000000000000178 ) ) ;
#193 = CYLINDRICAL_SURFACE ( 'NONE', #70, 0.9999999999999988898 ) ;
#194 = CC_DESIGN_PERSON_AND_ORGANIZATION_ASSIGNMENT ( #197, #112, ( #211 ) ) ;
#195 = VERTEX_POINT ( 'NONE', #94 ) ;
#196 = DIRECTION ( 'NONE',  ( 4.275831445896957731E-31, 1.000000000000000000, 1.224646799147353454E-16 ) ) ;
#197 = PERSON_AND_ORGANIZATION ( #187, #111 ) ;
#198 = APPROVAL_PERSON_ORGANIZATION ( #59, #199, #128 ) ;
#199 = APPROVAL ( #77, 'UNSPECIFIED' ) ;
#200 = COORDINATED_UNIVERSAL_TIME_OFFSET ( 1, 0, .AHEAD. ) ;
#201 = APPROVAL_DATE_TIME ( #116, #199 ) ;
#202 = CONICAL_SURFACE ( 'NONE', #103, 0.7899999999999935962, 1.029744258676649871 ) ;
#203 = ADVANCED_BREP_SHAPE_REPRESENTATION ( '55410', ( #35, #115, #20 ), #23 ) ;
#204 = ORIENTED_EDGE ( 'NONE', *, *, #44, .T. ) ;
#205 = AXIS2_PLACEMENT_3D ( 'NONE', #3, #212, #88 ) ;
#206 = ADVANCED_FACE ( 'NONE', ( #18, #36 ), #193, .T. ) ;
#207 = ORIENTED_EDGE ( 'NONE', *, *, #69, .T. ) ;
#208 = DIRECTION ( 'NONE',  ( 3.491481338843133355E-15, -1.224646799147353207E-16, 1.000000000000000000 ) ) ;
#209 = EDGE_LOOP ( 'NONE', ( #150 ) ) ;
#210 = EDGE_LOOP ( 'NONE', ( #220 ) ) ;
#211 = PRODUCT_DEFINITION_FORMATION_WITH_SPECIFIED_SOURCE ( 'ANY', '', #89, .NOT_KNOWN. ) ;
#212 = DIRECTION ( 'NONE',  ( -3.491481338843133355E-15, 1.224646799147353207E-16, -1.000000000000000000 ) ) ;
#213 = FACE_OUTER_BOUND ( 'NONE', #209, .T. ) ;
#214 = PRODUCT_DEFINITION ( 'UNKNOWN', '', #211, #169 ) ;
#215 = APPLICATION_CONTEXT ( 'configuration controlled 3d designs of mechanical parts and assemblies' ) ;
#216 = DATE_AND_TIME ( #7, #217 ) ;
#217 = LOCAL_TIME ( 7, 15, 35.00000000000000000, #160 ) ;
#218 = PERSON_AND_ORGANIZATION ( #187, #111 ) ;
#219 = APPROVAL_DATE_TIME ( #117, #66 ) ;
#220 = ORIENTED_EDGE ( 'NONE', *, *, #162, .F. ) ;
#221 = ORIENTED_EDGE ( 'NONE', *, *, #29, .T. ) ;
#222 = LOCAL_TIME ( 7, 15, 35.00000000000000000, #164 ) ;
#223 = EDGE_LOOP ( 'NONE', ( #204 ) ) ;
ENDSEC;
END-ISO-10303-21;
