ISO-10303-21;
HEADER;
FILE_DESCRIPTION (( 'STEP AP203' ),
    '1' );
FILE_NAME ('55409.step',
    '2021-10-08T05:15:34',
    ( '' ),
    ( '' ),
    'SwSTEP 2.0',
    'SolidWorks 2019',
    '' );
FILE_SCHEMA (( 'CONFIG_CONTROL_DESIGN' ));
ENDSEC;

DATA;
#1 = FACE_BOUND ( 'NONE', #122, .T. ) ;
#2 = AXIS2_PLACEMENT_3D ( 'NONE', #42, #64, #6 ) ;
#3 = FACE_OUTER_BOUND ( 'NONE', #120, .T. ) ;
#4 = DIRECTION ( 'NONE',  ( 0.0000000000000000000, 1.000000000000000000, 0.0000000000000000000 ) ) ;
#5 = VERTEX_POINT ( 'NONE', #144 ) ;
#6 = DIRECTION ( 'NONE',  ( 1.000000000000000000, 0.0000000000000000000, 0.0000000000000000000 ) ) ;
#7 = DATE_AND_TIME ( #152, #159 ) ;
#8 = APPROVAL_DATE_TIME ( #7, #84 ) ;
#9 = APPROVAL_STATUS ( 'not_yet_approved' ) ;
#10 = COORDINATED_UNIVERSAL_TIME_OFFSET ( 1, 0, .AHEAD. ) ;
#11 = AXIS2_PLACEMENT_3D ( 'NONE', #145, #35, #161 ) ;
#12 = UNCERTAINTY_MEASURE_WITH_UNIT (LENGTH_MEASURE( 1.000000000000000082E-05 ), #184, 'distance_accuracy_value', 'NONE');
#13 = CC_DESIGN_PERSON_AND_ORGANIZATION_ASSIGNMENT ( #97, #167, ( #107 ) ) ;
#14 = ORIENTED_EDGE ( 'NONE', *, *, #154, .F. ) ;
#15 = DIRECTION ( 'NONE',  ( 0.0000000000000000000, 1.000000000000000000, 0.0000000000000000000 ) ) ;
#16 = DIRECTION ( 'NONE',  ( 4.275831445896957731E-31, 1.000000000000000000, 1.224646799147353454E-16 ) ) ;
#17 = CLOSED_SHELL ( 'NONE', ( #214, #58, #166 ) ) ;
#18 = APPROVAL ( #134, 'UNSPECIFIED' ) ;
#19 = CARTESIAN_POINT ( 'NONE',  ( 1.326762908760390423E-13, 5.999039130647367482E-33, 38.00000000000000000 ) ) ;
#20 = DIRECTION ( 'NONE',  ( 3.491481338843133355E-15, -1.224646799147353207E-16, 1.000000000000000000 ) ) ;
#21 = DESIGN_CONTEXT ( 'detailed design', #118, 'design' ) ;
#22 = PRODUCT_DEFINITION ( 'UNKNOWN', '', #90, #21 ) ;
#23 = CARTESIAN_POINT ( 'NONE',  ( 4.189777606611760026E-14, 5.886557146947735551E-33, 12.00000000000000000 ) ) ;
#24 =( NAMED_UNIT ( * ) PLANE_ANGLE_UNIT ( ) SI_UNIT ( $, .RADIAN. ) );
#25 = CARTESIAN_POINT ( 'NONE',  ( 4.189777606611760026E-14, 0.7849999999999940359, 12.00000000000000000 ) ) ;
#26 = SECURITY_CLASSIFICATION_LEVEL ( 'unclassified' ) ;
#27 = AXIS2_PLACEMENT_3D ( 'NONE', #74, #20, #94 ) ;
#28 = LOCAL_TIME ( 7, 15, 34.00000000000000000, #81 ) ;
#29 = DATE_TIME_ROLE ( 'classification_date' ) ;
#30 = CYLINDRICAL_SURFACE ( 'NONE', #31, 0.7849999999999945910 ) ;
#31 = AXIS2_PLACEMENT_3D ( 'NONE', #171, #104, #130 ) ;
#32 = ORIENTED_EDGE ( 'NONE', *, *, #150, .T. ) ;
#33 = ORIENTED_EDGE ( 'NONE', *, *, #169, .F. ) ;
#34 = FACE_OUTER_BOUND ( 'NONE', #102, .T. ) ;
#35 = DIRECTION ( 'NONE',  ( 3.491481338843133355E-15, -1.224646799147353207E-16, 1.000000000000000000 ) ) ;
#36 = PERSON ( 'UNSPECIFIED', 'UNSPECIFIED', 'UNSPECIFIED', ('UNSPECIFIED'), ('UNSPECIFIED'), ('UNSPECIFIED') ) ;
#37 = CYLINDRICAL_SURFACE ( 'NONE', #194, 0.9999999999999988898 ) ;
#38 = CARTESIAN_POINT ( 'NONE',  ( 4.189777606611760026E-14, -1.469576158976823947E-15, 12.00000000000000000 ) ) ;
#39 = PRODUCT_RELATED_PRODUCT_CATEGORY ( 'detail', '', ( #41 ) ) ;
#40 = CARTESIAN_POINT ( 'NONE',  ( 4.319797202671694606E-14, -1.515180894241996116E-15, 12.37239092362731974 ) ) ;
#41 = PRODUCT ( '55409', '55409', '', ( #199 ) ) ;
#42 = CARTESIAN_POINT ( 'NONE',  ( 0.0000000000000000000, 0.0000000000000000000, 0.0000000000000000000 ) ) ;
#43 = AXIS2_PLACEMENT_3D ( 'NONE', #163, #174, #15 ) ;
#44 = PERSON_AND_ORGANIZATION ( #36, #95 ) ;
#45 = CALENDAR_DATE ( 2021, 8, 10 ) ;
#46 = MANIFOLD_SOLID_BREP ( 'Corps-Déplacer/Copier1[2]', #17 ) ;
#47 = CALENDAR_DATE ( 2021, 8, 10 ) ;
#48 = CC_DESIGN_DATE_AND_TIME_ASSIGNMENT ( #62, #80, ( #22 ) ) ;
#49 = EDGE_LOOP ( 'NONE', ( #221 ) ) ;
#50 = AXIS2_PLACEMENT_3D ( 'NONE', #57, #146, #56 ) ;
#51 = EDGE_CURVE ( 'NONE', #209, #209, #66, .T. ) ;
#52 = EDGE_LOOP ( 'NONE', ( #188 ) ) ;
#53 = AXIS2_PLACEMENT_3D ( 'NONE', #38, #55, #109 ) ;
#54 = CARTESIAN_POINT ( 'NONE',  ( 1.646846506285665749E-15, -5.776359965532537720E-17, 0.4716755859366361103 ) ) ;
#55 = DIRECTION ( 'NONE',  ( -3.491481338843133355E-15, 1.224646799147353207E-16, -1.000000000000000000 ) ) ;
#56 = DIRECTION ( 'NONE',  ( 0.0000000000000000000, 1.000000000000000000, 0.0000000000000000000 ) ) ;
#57 = CARTESIAN_POINT ( 'NONE',  ( 4.319797202671694606E-14, -1.515180894241996116E-15, 12.37239092362731974 ) ) ;
#58 = ADVANCED_FACE ( 'NONE', ( #68, #142 ), #30, .T. ) ;
#59 = FACE_OUTER_BOUND ( 'NONE', #173, .T. ) ;
#60 = PERSON_AND_ORGANIZATION ( #36, #95 ) ;
#61 = CC_DESIGN_APPROVAL ( #84, ( #22 ) ) ;
#62 = DATE_AND_TIME ( #217, #187 ) ;
#63 = DATE_AND_TIME ( #218, #124 ) ;
#64 = DIRECTION ( 'NONE',  ( 0.0000000000000000000, 0.0000000000000000000, 1.000000000000000000 ) ) ;
#65 = ADVANCED_FACE ( 'NONE', ( #211 ), #105, .F. ) ;
#66 = CIRCLE ( 'NONE', #82, 0.7849999999999935918 ) ;
#67 = CC_DESIGN_DATE_AND_TIME_ASSIGNMENT ( #63, #29, ( #107 ) ) ;
#68 = FACE_OUTER_BOUND ( 'NONE', #85, .T. ) ;
#69 = EDGE_LOOP ( 'NONE', ( #207 ) ) ;
#70 = APPROVAL ( #9, 'UNSPECIFIED' ) ;
#71 = ADVANCED_BREP_SHAPE_REPRESENTATION ( '55409', ( #115, #46, #2 ), #101 ) ;
#72 = DIRECTION ( 'NONE',  ( 4.275831445896958607E-31, 1.000000000000000000, 1.224646799147353207E-16 ) ) ;
#73 = CARTESIAN_POINT ( 'NONE',  ( 1.326762908760390423E-13, -4.653657836759941941E-15, 38.00000000000000000 ) ) ;
#74 = CARTESIAN_POINT ( 'NONE',  ( 1.646846506285665749E-15, -5.776359965532537720E-17, 0.4716755859366361103 ) ) ;
#75 = CIRCLE ( 'NONE', #222, 1.000000000000000888 ) ;
#76 = CARTESIAN_POINT ( 'NONE',  ( 1.646846506285666143E-15, 0.7849999999999934808, 0.4716755859366362214 ) ) ;
#77 = APPROVAL_PERSON_ORGANIZATION ( #136, #70, #203 ) ;
#78 = VERTEX_POINT ( 'NONE', #149 ) ;
#79 = CC_DESIGN_APPROVAL ( #70, ( #107 ) ) ;
#80 = DATE_TIME_ROLE ( 'creation_date' ) ;
#81 = COORDINATED_UNIVERSAL_TIME_OFFSET ( 1, 0, .AHEAD. ) ;
#82 = AXIS2_PLACEMENT_3D ( 'NONE', #54, #186, #156 ) ;
#83 = CC_DESIGN_SECURITY_CLASSIFICATION ( #107, ( #90 ) ) ;
#84 = APPROVAL ( #165, 'UNSPECIFIED' ) ;
#85 = EDGE_LOOP ( 'NONE', ( #220 ) ) ;
#86 = CONICAL_SURFACE ( 'NONE', #103, 0.8000000000000009326, 0.7853981633974512766 ) ;
#87 = ORIENTED_EDGE ( 'NONE', *, *, #169, .T. ) ;
#88 = ADVANCED_FACE ( 'NONE', ( #179, #3 ), #37, .T. ) ;
#89 = FACE_OUTER_BOUND ( 'NONE', #49, .T. ) ;
#90 = PRODUCT_DEFINITION_FORMATION_WITH_SPECIFIED_SOURCE ( 'ANY', '', #41, .NOT_KNOWN. ) ;
#91 = CC_DESIGN_APPROVAL ( #18, ( #90 ) ) ;
#92 = DIRECTION ( 'NONE',  ( 0.0000000000000000000, 1.000000000000000000, 0.0000000000000000000 ) ) ;
#93 = FACE_BOUND ( 'NONE', #100, .T. ) ;
#94 = DIRECTION ( 'NONE',  ( -4.906827883789175622E-31, -1.000000000000000000, -1.381149264312755674E-16 ) ) ;
#95 = ORGANIZATION ( 'UNSPECIFIED', 'UNSPECIFIED', '' ) ;
#96 = CARTESIAN_POINT ( 'NONE',  ( 4.319797202671694606E-14, 0.9999999999999954481, 12.37239092362731974 ) ) ;
#97 = PERSON_AND_ORGANIZATION ( #36, #95 ) ;
#98 = CC_DESIGN_PERSON_AND_ORGANIZATION_ASSIGNMENT ( #168, #116, ( #90 ) ) ;
#99 = PERSON_AND_ORGANIZATION ( #36, #95 ) ;
#100 = EDGE_LOOP ( 'NONE', ( #33 ) ) ;
#101 =( GEOMETRIC_REPRESENTATION_CONTEXT ( 3 ) GLOBAL_UNCERTAINTY_ASSIGNED_CONTEXT ( ( #12 ) ) GLOBAL_UNIT_ASSIGNED_CONTEXT ( ( #184, #24, #182 ) ) REPRESENTATION_CONTEXT ( 'NONE', 'WORKASPACE' ) );
#102 = EDGE_LOOP ( 'NONE', ( #143 ) ) ;
#103 = AXIS2_PLACEMENT_3D ( 'NONE', #108, #192, #4 ) ;
#104 = DIRECTION ( 'NONE',  ( -3.491481338843133355E-15, 1.224646799147353207E-16, -1.000000000000000000 ) ) ;
#105 = PLANE ( 'NONE',  #123 ) ;
#106 = CONICAL_SURFACE ( 'NONE', #205, 0.9999999999999970024, 0.5235987755982897118 ) ;
#107 = SECURITY_CLASSIFICATION ( '', '', #26 ) ;
#108 = CARTESIAN_POINT ( 'NONE',  ( 1.326762908760390423E-13, -4.653657836759941941E-15, 38.00000000000000000 ) ) ;
#109 = DIRECTION ( 'NONE',  ( 0.0000000000000000000, 1.000000000000000000, 0.0000000000000000000 ) ) ;
#110 = DIRECTION ( 'NONE',  ( 0.0000000000000000000, 1.000000000000000000, 0.0000000000000000000 ) ) ;
#111 = EDGE_CURVE ( 'NONE', #147, #147, #112, .T. ) ;
#112 = CIRCLE ( 'NONE', #43, 0.7849999999999955902 ) ;
#113 = DATE_AND_TIME ( #45, #208 ) ;
#114 = APPLICATION_PROTOCOL_DEFINITION ( 'international standard', 'config_control_design', 1994, #118 ) ;
#115 = MANIFOLD_SOLID_BREP ( 'Corps-Déplacer/Copier1[1]', #198 ) ;
#116 = PERSON_AND_ORGANIZATION_ROLE ( 'creator' ) ;
#117 = COORDINATED_UNIVERSAL_TIME_OFFSET ( 1, 0, .AHEAD. ) ;
#118 = APPLICATION_CONTEXT ( 'configuration controlled 3d designs of mechanical parts and assemblies' ) ;
#119 = APPLICATION_PROTOCOL_DEFINITION ( 'international standard', 'config_control_design', 1994, #216 ) ;
#120 = EDGE_LOOP ( 'NONE', ( #32 ) ) ;
#121 = ORIENTED_EDGE ( 'NONE', *, *, #51, .T. ) ;
#122 = EDGE_LOOP ( 'NONE', ( #140 ) ) ;
#123 = AXIS2_PLACEMENT_3D ( 'NONE', #19, #160, #72 ) ;
#124 = LOCAL_TIME ( 7, 15, 34.00000000000000000, #117 ) ;
#125 = VERTEX_POINT ( 'NONE', #96 ) ;
#126 = FACE_OUTER_BOUND ( 'NONE', #141, .T. ) ;
#127 = DIRECTION ( 'NONE',  ( 0.0000000000000000000, -1.000000000000000000, 0.0000000000000000000 ) ) ;
#128 = CONICAL_SURFACE ( 'NONE', #27, 0.7849999999999935918, 1.029744258676649649 ) ;
#129 = CARTESIAN_POINT ( 'NONE',  ( 1.319779946082704535E-13, -4.629164900776995227E-15, 37.79999999999999716 ) ) ;
#130 = DIRECTION ( 'NONE',  ( 4.275831445896958607E-31, 1.000000000000000000, 1.224646799147353207E-16 ) ) ;
#131 = EDGE_CURVE ( 'NONE', #125, #125, #170, .T. ) ;
#132 = PERSON_AND_ORGANIZATION ( #36, #95 ) ;
#133 = APPROVAL_PERSON_ORGANIZATION ( #99, #84, #164 ) ;
#134 = APPROVAL_STATUS ( 'not_yet_approved' ) ;
#135 = PRODUCT_DEFINITION_SHAPE ( 'NONE', 'NONE',  #22 ) ;
#136 = PERSON_AND_ORGANIZATION ( #36, #95 ) ;
#137 = PERSON_AND_ORGANIZATION ( #36, #95 ) ;
#138 = AXIS2_PLACEMENT_3D ( 'NONE', #73, #175, #110 ) ;
#139 = CC_DESIGN_PERSON_AND_ORGANIZATION_ASSIGNMENT ( #132, #197, ( #90 ) ) ;
#140 = ORIENTED_EDGE ( 'NONE', *, *, #154, .T. ) ;
#141 = EDGE_LOOP ( 'NONE', ( #87 ) ) ;
#142 = FACE_OUTER_BOUND ( 'NONE', #155, .T. ) ;
#143 = ORIENTED_EDGE ( 'NONE', *, *, #131, .T. ) ;
#144 = CARTESIAN_POINT ( 'NONE',  ( 1.319779946082704535E-13, 0.9999999999999963363, 37.79999999999999716 ) ) ;
#145 = CARTESIAN_POINT ( 'NONE',  ( 4.189777606611760026E-14, 5.886557146947735551E-33, 12.00000000000000000 ) ) ;
#146 = DIRECTION ( 'NONE',  ( -3.491481338843133355E-15, 1.224646799147353207E-16, -1.000000000000000000 ) ) ;
#147 = VERTEX_POINT ( 'NONE', #212 ) ;
#148 = ADVANCED_FACE ( 'NONE', ( #93, #34 ), #106, .T. ) ;
#149 = CARTESIAN_POINT ( 'NONE',  ( 1.326762908760390423E-13, 0.7999999999999962697, 38.00000000000000000 ) ) ;
#150 = EDGE_CURVE ( 'NONE', #5, #5, #75, .T. ) ;
#151 = PERSON_AND_ORGANIZATION_ROLE ( 'creator' ) ;
#152 = CALENDAR_DATE ( 2021, 8, 10 ) ;
#153 = AXIS2_PLACEMENT_3D ( 'NONE', #23, #158, #213 ) ;
#154 = EDGE_CURVE ( 'NONE', #78, #78, #183, .T. ) ;
#155 = EDGE_LOOP ( 'NONE', ( #204 ) ) ;
#156 = DIRECTION ( 'NONE',  ( 4.906827883789175622E-31, 1.000000000000000000, 1.381149264312755674E-16 ) ) ;
#157 = EDGE_LOOP ( 'NONE', ( #14 ) ) ;
#158 = DIRECTION ( 'NONE',  ( 3.491481338843133355E-15, -1.224646799147353207E-16, 1.000000000000000000 ) ) ;
#159 = LOCAL_TIME ( 7, 15, 34.00000000000000000, #181 ) ;
#160 = DIRECTION ( 'NONE',  ( -3.491481338843133355E-15, 1.224646799147353207E-16, -1.000000000000000000 ) ) ;
#161 = DIRECTION ( 'NONE',  ( -4.275831445896958607E-31, -1.000000000000000000, -1.224646799147353207E-16 ) ) ;
#162 = FACE_OUTER_BOUND ( 'NONE', #69, .T. ) ;
#163 = CARTESIAN_POINT ( 'NONE',  ( 4.189777606611760026E-14, -1.469576158976823947E-15, 12.00000000000000000 ) ) ;
#164 = APPROVAL_ROLE ( '' ) ;
#165 = APPROVAL_STATUS ( 'not_yet_approved' ) ;
#166 = ADVANCED_FACE ( 'NONE', ( #89 ), #178, .T. ) ;
#167 = PERSON_AND_ORGANIZATION_ROLE ( 'classification_officer' ) ;
#168 = PERSON_AND_ORGANIZATION ( #36, #95 ) ;
#169 = EDGE_CURVE ( 'NONE', #191, #191, #202, .T. ) ;
#170 = CIRCLE ( 'NONE', #50, 0.9999999999999970024 ) ;
#171 = CARTESIAN_POINT ( 'NONE',  ( 0.0000000000000000000, 0.0000000000000000000, 0.0000000000000000000 ) ) ;
#172 = DATE_AND_TIME ( #47, #28 ) ;
#173 = EDGE_LOOP ( 'NONE', ( #121 ) ) ;
#174 = DIRECTION ( 'NONE',  ( -3.491481338843133355E-15, 1.224646799147353207E-16, -1.000000000000000000 ) ) ;
#175 = DIRECTION ( 'NONE',  ( -3.491481338843133355E-15, 1.224646799147353207E-16, -1.000000000000000000 ) ) ;
#176 = DIRECTION ( 'NONE',  ( 3.491481338843133355E-15, -1.224646799147353207E-16, 1.000000000000000000 ) ) ;
#177 = CC_DESIGN_PERSON_AND_ORGANIZATION_ASSIGNMENT ( #60, #151, ( #22 ) ) ;
#178 = PLANE ( 'NONE',  #11 ) ;
#179 = FACE_OUTER_BOUND ( 'NONE', #52, .T. ) ;
#180 = PERSON_AND_ORGANIZATION_ROLE ( 'design_owner' ) ;
#181 = COORDINATED_UNIVERSAL_TIME_OFFSET ( 1, 0, .AHEAD. ) ;
#182 =( NAMED_UNIT ( * ) SI_UNIT ( $, .STERADIAN. ) SOLID_ANGLE_UNIT ( ) );
#183 = CIRCLE ( 'NONE', #138, 0.8000000000000009326 ) ;
#184 =( LENGTH_UNIT ( ) NAMED_UNIT ( * ) SI_UNIT ( .MILLI., .METRE. ) );
#185 = SHAPE_DEFINITION_REPRESENTATION ( #135, #71 ) ;
#186 = DIRECTION ( 'NONE',  ( -3.491481338843133355E-15, 1.224646799147353207E-16, -1.000000000000000000 ) ) ;
#187 = LOCAL_TIME ( 7, 15, 34.00000000000000000, #10 ) ;
#188 = ORIENTED_EDGE ( 'NONE', *, *, #131, .F. ) ;
#189 = ADVANCED_FACE ( 'NONE', ( #126 ), #193, .F. ) ;
#190 = CC_DESIGN_PERSON_AND_ORGANIZATION_ASSIGNMENT ( #137, #180, ( #41 ) ) ;
#191 = VERTEX_POINT ( 'NONE', #25 ) ;
#192 = DIRECTION ( 'NONE',  ( -3.491481338843133355E-15, 1.224646799147353207E-16, -1.000000000000000000 ) ) ;
#193 = PLANE ( 'NONE',  #153 ) ;
#194 = AXIS2_PLACEMENT_3D ( 'NONE', #210, #196, #16 ) ;
#195 = DIRECTION ( 'NONE',  ( -3.491481338843133355E-15, 1.224646799147353207E-16, -1.000000000000000000 ) ) ;
#196 = DIRECTION ( 'NONE',  ( -3.491481338843133355E-15, 1.224646799147353207E-16, -1.000000000000000000 ) ) ;
#197 = PERSON_AND_ORGANIZATION_ROLE ( 'design_supplier' ) ;
#198 = CLOSED_SHELL ( 'NONE', ( #189, #148, #88, #206, #65 ) ) ;
#199 = MECHANICAL_CONTEXT ( 'NONE', #216, 'mechanical' ) ;
#200 = APPROVAL_DATE_TIME ( #113, #18 ) ;
#201 = APPROVAL_ROLE ( '' ) ;
#202 = CIRCLE ( 'NONE', #53, 0.7849999999999955902 ) ;
#203 = APPROVAL_ROLE ( '' ) ;
#204 = ORIENTED_EDGE ( 'NONE', *, *, #111, .T. ) ;
#205 = AXIS2_PLACEMENT_3D ( 'NONE', #40, #176, #127 ) ;
#206 = ADVANCED_FACE ( 'NONE', ( #162, #1 ), #86, .T. ) ;
#207 = ORIENTED_EDGE ( 'NONE', *, *, #150, .F. ) ;
#208 = LOCAL_TIME ( 7, 15, 34.00000000000000000, #219 ) ;
#209 = VERTEX_POINT ( 'NONE', #76 ) ;
#210 = CARTESIAN_POINT ( 'NONE',  ( 0.0000000000000000000, 0.0000000000000000000, 0.0000000000000000000 ) ) ;
#211 = FACE_OUTER_BOUND ( 'NONE', #157, .T. ) ;
#212 = CARTESIAN_POINT ( 'NONE',  ( 4.189777606611760026E-14, 0.7849999999999940359, 12.00000000000000000 ) ) ;
#213 = DIRECTION ( 'NONE',  ( -4.275831445896958607E-31, -1.000000000000000000, -1.224646799147353207E-16 ) ) ;
#214 = ADVANCED_FACE ( 'NONE', ( #59 ), #128, .T. ) ;
#215 = APPROVAL_PERSON_ORGANIZATION ( #44, #18, #201 ) ;
#216 = APPLICATION_CONTEXT ( 'configuration controlled 3d designs of mechanical parts and assemblies' ) ;
#217 = CALENDAR_DATE ( 2021, 8, 10 ) ;
#218 = CALENDAR_DATE ( 2021, 8, 10 ) ;
#219 = COORDINATED_UNIVERSAL_TIME_OFFSET ( 1, 0, .AHEAD. ) ;
#220 = ORIENTED_EDGE ( 'NONE', *, *, #51, .F. ) ;
#221 = ORIENTED_EDGE ( 'NONE', *, *, #111, .F. ) ;
#222 = AXIS2_PLACEMENT_3D ( 'NONE', #129, #195, #92 ) ;
#223 = APPROVAL_DATE_TIME ( #172, #70 ) ;
ENDSEC;
END-ISO-10303-21;
