ISO-10303-21;
HEADER;
FILE_DESCRIPTION (( 'STEP AP203' ),
    '1' );
FILE_NAME ('55407.step',
    '2021-10-08T05:15:33',
    ( '' ),
    ( '' ),
    'SwSTEP 2.0',
    'SolidWorks 2019',
    '' );
FILE_SCHEMA (( 'CONFIG_CONTROL_DESIGN' ));
ENDSEC;

DATA;
#1 = PLANE ( 'NONE',  #50 ) ;
#2 = DIRECTION ( 'NONE',  ( 0.0000000000000000000, 1.000000000000000000, 0.0000000000000000000 ) ) ;
#3 = DIRECTION ( 'NONE',  ( -3.491481338843133355E-15, 1.224646799147353207E-16, -1.000000000000000000 ) ) ;
#4 = PRODUCT_DEFINITION_SHAPE ( 'NONE', 'NONE',  #17 ) ;
#5 = DIRECTION ( 'NONE',  ( -4.275831445896958607E-31, -1.000000000000000000, -1.224646799147353207E-16 ) ) ;
#6 = CARTESIAN_POINT ( 'NONE',  ( 4.189777606611760026E-14, -1.469576158976823947E-15, 12.00000000000000000 ) ) ;
#7 = CALENDAR_DATE ( 2021, 8, 10 ) ;
#8 = PERSON_AND_ORGANIZATION_ROLE ( 'design_supplier' ) ;
#9 = CC_DESIGN_APPROVAL ( #72, ( #45 ) ) ;
#10 = ADVANCED_FACE ( 'NONE', ( #124 ), #1, .F. ) ;
#11 = APPROVAL_STATUS ( 'not_yet_approved' ) ;
#12 = APPROVAL_DATE_TIME ( #66, #178 ) ;
#13 = CLOSED_SHELL ( 'NONE', ( #216, #88, #130, #79, #10 ) ) ;
#14 = UNCERTAINTY_MEASURE_WITH_UNIT (LENGTH_MEASURE( 1.000000000000000082E-05 ), #92, 'distance_accuracy_value', 'NONE');
#15 = DIRECTION ( 'NONE',  ( -3.491481338843133355E-15, 1.224646799147353207E-16, -1.000000000000000000 ) ) ;
#16 = CARTESIAN_POINT ( 'NONE',  ( 1.625867569899860591E-15, -5.702775762149956404E-17, 0.4656669797463603988 ) ) ;
#17 = PRODUCT_DEFINITION ( 'UNKNOWN', '', #24, #86 ) ;
#18 = ORIENTED_EDGE ( 'NONE', *, *, #99, .T. ) ;
#19 = PRODUCT ( '55407', '55407', '', ( #182 ) ) ;
#20 = APPROVAL_PERSON_ORGANIZATION ( #31, #178, #104 ) ;
#21 = DIRECTION ( 'NONE',  ( 0.0000000000000000000, 1.000000000000000000, 0.0000000000000000000 ) ) ;
#22 = FACE_OUTER_BOUND ( 'NONE', #71, .T. ) ;
#23 = VERTEX_POINT ( 'NONE', #75 ) ;
#24 = PRODUCT_DEFINITION_FORMATION_WITH_SPECIFIED_SOURCE ( 'ANY', '', #19, .NOT_KNOWN. ) ;
#25 = CARTESIAN_POINT ( 'NONE',  ( 4.325844625744248352E-14, 0.9999999999999954481, 12.38971143170300593 ) ) ;
#26 = PERSON_AND_ORGANIZATION ( #112, #183 ) ;
#27 = ADVANCED_FACE ( 'NONE', ( #156 ), #29, .T. ) ;
#28 = APPROVAL_ROLE ( '' ) ;
#29 = CONICAL_SURFACE ( 'NONE', #202, 0.7749999999999935829, 1.029744258676649871 ) ;
#30 = CALENDAR_DATE ( 2021, 8, 10 ) ;
#31 = PERSON_AND_ORGANIZATION ( #112, #183 ) ;
#32 = CIRCLE ( 'NONE', #44, 0.7749999999999951372 ) ;
#33 = APPROVAL_PERSON_ORGANIZATION ( #64, #72, #65 ) ;
#34 = ORIENTED_EDGE ( 'NONE', *, *, #212, .F. ) ;
#35 = EDGE_LOOP ( 'NONE', ( #173 ) ) ;
#36 = CARTESIAN_POINT ( 'NONE',  ( 4.325844625744248352E-14, -1.517302044719445810E-15, 12.38971143170300593 ) ) ;
#37 = AXIS2_PLACEMENT_3D ( 'NONE', #145, #162, #180 ) ;
#38 = EDGE_LOOP ( 'NONE', ( #139 ) ) ;
#39 = CC_DESIGN_PERSON_AND_ORGANIZATION_ASSIGNMENT ( #26, #8, ( #24 ) ) ;
#40 = MANIFOLD_SOLID_BREP ( 'Corps-Déplacer/Copier1[1]', #13 ) ;
#41 = DIRECTION ( 'NONE',  ( 4.275831445896957731E-31, 1.000000000000000000, 1.224646799147353207E-16 ) ) ;
#42 = VERTEX_POINT ( 'NONE', #131 ) ;
#43 = CARTESIAN_POINT ( 'NONE',  ( 4.189777606611760026E-14, 0.7749999999999935829, 12.00000000000000000 ) ) ;
#44 = AXIS2_PLACEMENT_3D ( 'NONE', #163, #179, #21 ) ;
#45 = SECURITY_CLASSIFICATION ( '', '', #219 ) ;
#46 = CARTESIAN_POINT ( 'NONE',  ( 4.189777606611760026E-14, 5.811569157814638703E-33, 12.00000000000000000 ) ) ;
#47 = COORDINATED_UNIVERSAL_TIME_OFFSET ( 1, 0, .AHEAD. ) ;
#48 = LOCAL_TIME ( 7, 15, 33.00000000000000000, #47 ) ;
#49 = DATE_AND_TIME ( #30, #193 ) ;
#50 = AXIS2_PLACEMENT_3D ( 'NONE', #56, #15, #141 ) ;
#51 = EDGE_LOOP ( 'NONE', ( #53 ) ) ;
#52 = DIRECTION ( 'NONE',  ( 0.0000000000000000000, 1.000000000000000000, 0.0000000000000000000 ) ) ;
#53 = ORIENTED_EDGE ( 'NONE', *, *, #212, .T. ) ;
#54 = APPROVAL ( #134, 'UNSPECIFIED' ) ;
#55 = CONICAL_SURFACE ( 'NONE', #114, 0.9999999999999970024, 0.5235987755982931535 ) ;
#56 = CARTESIAN_POINT ( 'NONE',  ( 1.326762908760390423E-13, 5.999039130647367482E-33, 38.00000000000000000 ) ) ;
#57 = APPLICATION_CONTEXT ( 'configuration controlled 3d designs of mechanical parts and assemblies' ) ;
#58 = DIRECTION ( 'NONE',  ( 0.0000000000000000000, -1.000000000000000000, 0.0000000000000000000 ) ) ;
#59 = DIRECTION ( 'NONE',  ( -3.491481338843133355E-15, 1.224646799147353207E-16, -1.000000000000000000 ) ) ;
#60 = CC_DESIGN_APPROVAL ( #54, ( #17 ) ) ;
#61 = VERTEX_POINT ( 'NONE', #209 ) ;
#62 = EDGE_CURVE ( 'NONE', #23, #23, #133, .T. ) ;
#63 = DIRECTION ( 'NONE',  ( 0.0000000000000000000, 0.0000000000000000000, 1.000000000000000000 ) ) ;
#64 = PERSON_AND_ORGANIZATION ( #112, #183 ) ;
#65 = APPROVAL_ROLE ( '' ) ;
#66 = DATE_AND_TIME ( #7, #103 ) ;
#67 = DATE_AND_TIME ( #83, #48 ) ;
#68 = CIRCLE ( 'NONE', #37, 0.7749999999999935829 ) ;
#69 = AXIS2_PLACEMENT_3D ( 'NONE', #171, #63, #121 ) ;
#70 = ORIENTED_EDGE ( 'NONE', *, *, #123, .F. ) ;
#71 = EDGE_LOOP ( 'NONE', ( #89 ) ) ;
#72 = APPROVAL ( #11, 'UNSPECIFIED' ) ;
#73 = DIRECTION ( 'NONE',  ( 3.491481338843133355E-15, -1.224646799147353207E-16, 1.000000000000000000 ) ) ;
#74 = EDGE_LOOP ( 'NONE', ( #127 ) ) ;
#75 = CARTESIAN_POINT ( 'NONE',  ( 1.326762908760390423E-13, 0.7999999999999962697, 38.00000000000000000 ) ) ;
#76 = CARTESIAN_POINT ( 'NONE',  ( 4.189777606611760026E-14, 0.7749999999999935829, 12.00000000000000000 ) ) ;
#77 = CC_DESIGN_SECURITY_CLASSIFICATION ( #45, ( #24 ) ) ;
#78 = DIRECTION ( 'NONE',  ( 3.491481338843133355E-15, -1.224646799147353207E-16, 1.000000000000000000 ) ) ;
#79 = ADVANCED_FACE ( 'NONE', ( #187, #189 ), #191, .T. ) ;
#80 = DIRECTION ( 'NONE',  ( 0.0000000000000000000, 1.000000000000000000, 0.0000000000000000000 ) ) ;
#81 = PERSON_AND_ORGANIZATION_ROLE ( 'creator' ) ;
#82 =( GEOMETRIC_REPRESENTATION_CONTEXT ( 3 ) GLOBAL_UNCERTAINTY_ASSIGNED_CONTEXT ( ( #14 ) ) GLOBAL_UNIT_ASSIGNED_CONTEXT ( ( #92, #211, #195 ) ) REPRESENTATION_CONTEXT ( 'NONE', 'WORKASPACE' ) );
#83 = CALENDAR_DATE ( 2021, 8, 10 ) ;
#84 = PERSON_AND_ORGANIZATION ( #112, #183 ) ;
#85 = CC_DESIGN_DATE_AND_TIME_ASSIGNMENT ( #67, #106, ( #45 ) ) ;
#86 = DESIGN_CONTEXT ( 'detailed design', #57, 'design' ) ;
#87 = PERSON_AND_ORGANIZATION ( #112, #183 ) ;
#88 = ADVANCED_FACE ( 'NONE', ( #142, #159 ), #55, .T. ) ;
#89 = ORIENTED_EDGE ( 'NONE', *, *, #126, .F. ) ;
#90 = DIRECTION ( 'NONE',  ( -3.491481338843133355E-15, 1.224646799147353207E-16, -1.000000000000000000 ) ) ;
#91 = EDGE_LOOP ( 'NONE', ( #161 ) ) ;
#92 =( LENGTH_UNIT ( ) NAMED_UNIT ( * ) SI_UNIT ( .MILLI., .METRE. ) );
#93 = AXIS2_PLACEMENT_3D ( 'NONE', #118, #95, #2 ) ;
#94 = FACE_OUTER_BOUND ( 'NONE', #35, .T. ) ;
#95 = DIRECTION ( 'NONE',  ( -3.491481338843133355E-15, 1.224646799147353207E-16, -1.000000000000000000 ) ) ;
#96 = FACE_OUTER_BOUND ( 'NONE', #201, .T. ) ;
#97 = AXIS2_PLACEMENT_3D ( 'NONE', #46, #194, #197 ) ;
#98 = LOCAL_TIME ( 7, 15, 33.00000000000000000, #186 ) ;
#99 = EDGE_CURVE ( 'NONE', #208, #208, #137, .T. ) ;
#100 = FACE_OUTER_BOUND ( 'NONE', #207, .T. ) ;
#101 = COORDINATED_UNIVERSAL_TIME_OFFSET ( 1, 0, .AHEAD. ) ;
#102 = COORDINATED_UNIVERSAL_TIME_OFFSET ( 1, 0, .AHEAD. ) ;
#103 = LOCAL_TIME ( 7, 15, 33.00000000000000000, #101 ) ;
#104 = APPROVAL_ROLE ( '' ) ;
#105 = CALENDAR_DATE ( 2021, 8, 10 ) ;
#106 = DATE_TIME_ROLE ( 'classification_date' ) ;
#107 = EDGE_LOOP ( 'NONE', ( #70 ) ) ;
#108 = CLOSED_SHELL ( 'NONE', ( #27, #165, #157 ) ) ;
#109 = ORIENTED_EDGE ( 'NONE', *, *, #99, .F. ) ;
#110 = APPLICATION_CONTEXT ( 'configuration controlled 3d designs of mechanical parts and assemblies' ) ;
#111 = DIRECTION ( 'NONE',  ( -4.970141791967101175E-31, -1.000000000000000000, -1.398970545142597881E-16 ) ) ;
#112 = PERSON ( 'UNSPECIFIED', 'UNSPECIFIED', 'UNSPECIFIED', ('UNSPECIFIED'), ('UNSPECIFIED'), ('UNSPECIFIED') ) ;
#113 = PLANE ( 'NONE',  #97 ) ;
#114 = AXIS2_PLACEMENT_3D ( 'NONE', #36, #73, #58 ) ;
#115 = DIRECTION ( 'NONE',  ( -3.491481338843133355E-15, 1.224646799147353207E-16, -1.000000000000000000 ) ) ;
#116 = CARTESIAN_POINT ( 'NONE',  ( 4.189777606611760026E-14, 5.811569157814638703E-33, 12.00000000000000000 ) ) ;
#117 = CARTESIAN_POINT ( 'NONE',  ( 4.325844625744248352E-14, -1.517302044719445810E-15, 12.38971143170300593 ) ) ;
#118 = CARTESIAN_POINT ( 'NONE',  ( 1.319779946082704535E-13, -4.629164900776995227E-15, 37.79999999999999716 ) ) ;
#119 = APPLICATION_PROTOCOL_DEFINITION ( 'international standard', 'config_control_design', 1994, #110 ) ;
#120 = PERSON_AND_ORGANIZATION ( #112, #183 ) ;
#121 = DIRECTION ( 'NONE',  ( 1.000000000000000000, 0.0000000000000000000, 0.0000000000000000000 ) ) ;
#122 = PERSON_AND_ORGANIZATION ( #112, #183 ) ;
#123 = EDGE_CURVE ( 'NONE', #166, #166, #32, .T. ) ;
#124 = FACE_OUTER_BOUND ( 'NONE', #91, .T. ) ;
#125 = CARTESIAN_POINT ( 'NONE',  ( 1.326762908760390423E-13, -4.653657836759941941E-15, 38.00000000000000000 ) ) ;
#126 = EDGE_CURVE ( 'NONE', #61, #61, #68, .T. ) ;
#127 = ORIENTED_EDGE ( 'NONE', *, *, #123, .T. ) ;
#128 = AXIS2_PLACEMENT_3D ( 'NONE', #117, #164, #80 ) ;
#129 = DIRECTION ( 'NONE',  ( -3.491481338843133355E-15, 1.224646799147353207E-16, -1.000000000000000000 ) ) ;
#130 = ADVANCED_FACE ( 'NONE', ( #190, #94 ), #177, .T. ) ;
#131 = CARTESIAN_POINT ( 'NONE',  ( 1.319779946082704535E-13, 0.9999999999999963363, 37.79999999999999716 ) ) ;
#132 = CARTESIAN_POINT ( 'NONE',  ( 0.0000000000000000000, 0.0000000000000000000, 0.0000000000000000000 ) ) ;
#133 = CIRCLE ( 'NONE', #150, 0.8000000000000009326 ) ;
#134 = APPROVAL_STATUS ( 'not_yet_approved' ) ;
#135 = CC_DESIGN_PERSON_AND_ORGANIZATION_ASSIGNMENT ( #120, #185, ( #19 ) ) ;
#136 = APPLICATION_PROTOCOL_DEFINITION ( 'international standard', 'config_control_design', 1994, #57 ) ;
#137 = CIRCLE ( 'NONE', #206, 0.7749999999999951372 ) ;
#138 = PERSON_AND_ORGANIZATION ( #112, #183 ) ;
#139 = ORIENTED_EDGE ( 'NONE', *, *, #174, .F. ) ;
#140 = PRODUCT_RELATED_PRODUCT_CATEGORY ( 'detail', '', ( #19 ) ) ;
#141 = DIRECTION ( 'NONE',  ( 4.275831445896958607E-31, 1.000000000000000000, 1.224646799147353207E-16 ) ) ;
#142 = FACE_BOUND ( 'NONE', #107, .T. ) ;
#143 = AXIS2_PLACEMENT_3D ( 'NONE', #116, #78, #5 ) ;
#144 = ORIENTED_EDGE ( 'NONE', *, *, #126, .T. ) ;
#145 = CARTESIAN_POINT ( 'NONE',  ( 1.625867569899860591E-15, -5.702775762149956404E-17, 0.4656669797463603988 ) ) ;
#146 = PLANE ( 'NONE',  #143 ) ;
#147 = VERTEX_POINT ( 'NONE', #25 ) ;
#148 = CYLINDRICAL_SURFACE ( 'NONE', #218, 0.7749999999999943601 ) ;
#149 = PERSON_AND_ORGANIZATION_ROLE ( 'creator' ) ;
#150 = AXIS2_PLACEMENT_3D ( 'NONE', #204, #129, #52 ) ;
#151 = DATE_AND_TIME ( #200, #98 ) ;
#152 = APPROVAL_STATUS ( 'not_yet_approved' ) ;
#153 = SHAPE_DEFINITION_REPRESENTATION ( #4, #154 ) ;
#154 = ADVANCED_BREP_SHAPE_REPRESENTATION ( '55407', ( #40, #184, #69 ), #82 ) ;
#155 = EDGE_LOOP ( 'NONE', ( #144 ) ) ;
#156 = FACE_OUTER_BOUND ( 'NONE', #155, .T. ) ;
#157 = ADVANCED_FACE ( 'NONE', ( #100 ), #113, .T. ) ;
#158 = CIRCLE ( 'NONE', #93, 1.000000000000000888 ) ;
#159 = FACE_OUTER_BOUND ( 'NONE', #51, .T. ) ;
#160 = EDGE_LOOP ( 'NONE', ( #221 ) ) ;
#161 = ORIENTED_EDGE ( 'NONE', *, *, #62, .F. ) ;
#162 = DIRECTION ( 'NONE',  ( -3.491481338843133355E-15, 1.224646799147353207E-16, -1.000000000000000000 ) ) ;
#163 = CARTESIAN_POINT ( 'NONE',  ( 4.189777606611760026E-14, -1.469576158976823947E-15, 12.00000000000000000 ) ) ;
#164 = DIRECTION ( 'NONE',  ( -3.491481338843133355E-15, 1.224646799147353207E-16, -1.000000000000000000 ) ) ;
#165 = ADVANCED_FACE ( 'NONE', ( #22, #96 ), #148, .T. ) ;
#166 = VERTEX_POINT ( 'NONE', #43 ) ;
#167 = DIRECTION ( 'NONE',  ( 4.275831445896957731E-31, 1.000000000000000000, 1.224646799147353454E-16 ) ) ;
#168 = DATE_TIME_ROLE ( 'creation_date' ) ;
#169 = APPROVAL_PERSON_ORGANIZATION ( #138, #54, #28 ) ;
#170 = DATE_AND_TIME ( #105, #175 ) ;
#171 = CARTESIAN_POINT ( 'NONE',  ( 0.0000000000000000000, 0.0000000000000000000, 0.0000000000000000000 ) ) ;
#172 = CC_DESIGN_PERSON_AND_ORGANIZATION_ASSIGNMENT ( #84, #149, ( #24 ) ) ;
#173 = ORIENTED_EDGE ( 'NONE', *, *, #174, .T. ) ;
#174 = EDGE_CURVE ( 'NONE', #42, #42, #158, .T. ) ;
#175 = LOCAL_TIME ( 7, 15, 33.00000000000000000, #102 ) ;
#176 = DIRECTION ( 'NONE',  ( 0.0000000000000000000, 1.000000000000000000, 0.0000000000000000000 ) ) ;
#177 = CYLINDRICAL_SURFACE ( 'NONE', #188, 0.9999999999999988898 ) ;
#178 = APPROVAL ( #152, 'UNSPECIFIED' ) ;
#179 = DIRECTION ( 'NONE',  ( -3.491481338843133355E-15, 1.224646799147353207E-16, -1.000000000000000000 ) ) ;
#180 = DIRECTION ( 'NONE',  ( 4.970141791967101175E-31, 1.000000000000000000, 1.398970545142597881E-16 ) ) ;
#181 = FACE_OUTER_BOUND ( 'NONE', #74, .T. ) ;
#182 = MECHANICAL_CONTEXT ( 'NONE', #110, 'mechanical' ) ;
#183 = ORGANIZATION ( 'UNSPECIFIED', 'UNSPECIFIED', '' ) ;
#184 = MANIFOLD_SOLID_BREP ( 'Corps-Déplacer/Copier1[2]', #108 ) ;
#185 = PERSON_AND_ORGANIZATION_ROLE ( 'design_owner' ) ;
#186 = COORDINATED_UNIVERSAL_TIME_OFFSET ( 1, 0, .AHEAD. ) ;
#187 = FACE_OUTER_BOUND ( 'NONE', #38, .T. ) ;
#188 = AXIS2_PLACEMENT_3D ( 'NONE', #132, #3, #167 ) ;
#189 = FACE_BOUND ( 'NONE', #160, .T. ) ;
#190 = FACE_OUTER_BOUND ( 'NONE', #203, .T. ) ;
#191 = CONICAL_SURFACE ( 'NONE', #210, 0.8000000000000009326, 0.7853981633974512766 ) ;
#192 = CC_DESIGN_PERSON_AND_ORGANIZATION_ASSIGNMENT ( #87, #81, ( #17 ) ) ;
#193 = LOCAL_TIME ( 7, 15, 33.00000000000000000, #199 ) ;
#194 = DIRECTION ( 'NONE',  ( 3.491481338843133355E-15, -1.224646799147353207E-16, 1.000000000000000000 ) ) ;
#195 =( NAMED_UNIT ( * ) SI_UNIT ( $, .STERADIAN. ) SOLID_ANGLE_UNIT ( ) );
#196 = CC_DESIGN_DATE_AND_TIME_ASSIGNMENT ( #170, #168, ( #17 ) ) ;
#197 = DIRECTION ( 'NONE',  ( -4.275831445896958607E-31, -1.000000000000000000, -1.224646799147353207E-16 ) ) ;
#198 = PERSON_AND_ORGANIZATION_ROLE ( 'classification_officer' ) ;
#199 = COORDINATED_UNIVERSAL_TIME_OFFSET ( 1, 0, .AHEAD. ) ;
#200 = CALENDAR_DATE ( 2021, 8, 10 ) ;
#201 = EDGE_LOOP ( 'NONE', ( #18 ) ) ;
#202 = AXIS2_PLACEMENT_3D ( 'NONE', #16, #222, #111 ) ;
#203 = EDGE_LOOP ( 'NONE', ( #34 ) ) ;
#204 = CARTESIAN_POINT ( 'NONE',  ( 1.326762908760390423E-13, -4.653657836759941941E-15, 38.00000000000000000 ) ) ;
#205 = DIRECTION ( 'NONE',  ( 0.0000000000000000000, 1.000000000000000000, 0.0000000000000000000 ) ) ;
#206 = AXIS2_PLACEMENT_3D ( 'NONE', #6, #115, #176 ) ;
#207 = EDGE_LOOP ( 'NONE', ( #109 ) ) ;
#208 = VERTEX_POINT ( 'NONE', #76 ) ;
#209 = CARTESIAN_POINT ( 'NONE',  ( 1.625867569899860985E-15, 0.7749999999999934719, 0.4656669797463604543 ) ) ;
#210 = AXIS2_PLACEMENT_3D ( 'NONE', #125, #90, #205 ) ;
#211 =( NAMED_UNIT ( * ) PLANE_ANGLE_UNIT ( ) SI_UNIT ( $, .RADIAN. ) );
#212 = EDGE_CURVE ( 'NONE', #147, #147, #214, .T. ) ;
#213 = CARTESIAN_POINT ( 'NONE',  ( 0.0000000000000000000, 0.0000000000000000000, 0.0000000000000000000 ) ) ;
#214 = CIRCLE ( 'NONE', #128, 0.9999999999999970024 ) ;
#215 = APPROVAL_DATE_TIME ( #151, #72 ) ;
#216 = ADVANCED_FACE ( 'NONE', ( #181 ), #146, .F. ) ;
#217 = APPROVAL_DATE_TIME ( #49, #54 ) ;
#218 = AXIS2_PLACEMENT_3D ( 'NONE', #213, #59, #41 ) ;
#219 = SECURITY_CLASSIFICATION_LEVEL ( 'unclassified' ) ;
#220 = CC_DESIGN_PERSON_AND_ORGANIZATION_ASSIGNMENT ( #122, #198, ( #45 ) ) ;
#221 = ORIENTED_EDGE ( 'NONE', *, *, #62, .T. ) ;
#222 = DIRECTION ( 'NONE',  ( 3.491481338843133355E-15, -1.224646799147353207E-16, 1.000000000000000000 ) ) ;
#223 = CC_DESIGN_APPROVAL ( #178, ( #24 ) ) ;
ENDSEC;
END-ISO-10303-21;
