ISO-10303-21;
HEADER;
FILE_DESCRIPTION (( 'STEP AP203' ),
    '1' );
FILE_NAME ('55406.step',
    '2021-10-08T05:15:32',
    ( '' ),
    ( '' ),
    'SwSTEP 2.0',
    'SolidWorks 2019',
    '' );
FILE_SCHEMA (( 'CONFIG_CONTROL_DESIGN' ));
ENDSEC;

DATA;
#1 = APPLICATION_PROTOCOL_DEFINITION ( 'international standard', 'config_control_design', 1994, #147 ) ;
#2 = LOCAL_TIME ( 7, 15, 32.00000000000000000, #67 ) ;
#3 = EDGE_LOOP ( 'NONE', ( #130 ) ) ;
#4 = EDGE_LOOP ( 'NONE', ( #21 ) ) ;
#5 = CLOSED_SHELL ( 'NONE', ( #118, #18, #131 ) ) ;
#6 = CC_DESIGN_APPROVAL ( #70, ( #219 ) ) ;
#7 = DIRECTION ( 'NONE',  ( 0.0000000000000000000, 1.000000000000000000, 0.0000000000000000000 ) ) ;
#8 = CARTESIAN_POINT ( 'NONE',  ( 4.189777606611760026E-14, 5.774075163248100884E-33, 12.00000000000000000 ) ) ;
#9 = CC_DESIGN_DATE_AND_TIME_ASSIGNMENT ( #143, #88, ( #219 ) ) ;
#10 = DIRECTION ( 'NONE',  ( 4.275831445896958607E-31, 1.000000000000000000, 1.224646799147353207E-16 ) ) ;
#11 = AXIS2_PLACEMENT_3D ( 'NONE', #8, #77, #155 ) ;
#12 = DIRECTION ( 'NONE',  ( -3.491481338843133355E-15, 1.224646799147353207E-16, -1.000000000000000000 ) ) ;
#13 = DIRECTION ( 'NONE',  ( -3.491481338843133355E-15, 1.224646799147353207E-16, -1.000000000000000000 ) ) ;
#14 = CARTESIAN_POINT ( 'NONE',  ( 4.189777606611760026E-14, 0.7699999999999946887, 12.00000000000000000 ) ) ;
#15 = VERTEX_POINT ( 'NONE', #30 ) ;
#16 = ORGANIZATION ( 'UNSPECIFIED', 'UNSPECIFIED', '' ) ;
#17 = APPLICATION_CONTEXT ( 'configuration controlled 3d designs of mechanical parts and assemblies' ) ;
#18 = ADVANCED_FACE ( 'NONE', ( #189, #190 ), #95, .T. ) ;
#19 = APPROVAL_STATUS ( 'not_yet_approved' ) ;
#20 = EDGE_LOOP ( 'NONE', ( #75 ) ) ;
#21 = ORIENTED_EDGE ( 'NONE', *, *, #99, .F. ) ;
#22 = MANIFOLD_SOLID_BREP ( 'Corps-Déplacer/Copier1[2]', #5 ) ;
#23 = DIRECTION ( 'NONE',  ( 5.002415439966887956E-31, 1.000000000000000000, 1.408054769461705775E-16 ) ) ;
#24 = MANIFOLD_SOLID_BREP ( 'Corps-Déplacer/Copier1[1]', #141 ) ;
#25 = AXIS2_PLACEMENT_3D ( 'NONE', #196, #103, #145 ) ;
#26 = FACE_OUTER_BOUND ( 'NONE', #90, .T. ) ;
#27 = VERTEX_POINT ( 'NONE', #98 ) ;
#28 = CYLINDRICAL_SURFACE ( 'NONE', #157, 0.9999999999999988898 ) ;
#29 = EDGE_LOOP ( 'NONE', ( #128 ) ) ;
#30 = CARTESIAN_POINT ( 'NONE',  ( 1.615378101706958702E-15, 0.7699999999999934674, 0.4626626766512226818 ) ) ;
#31 = PERSON_AND_ORGANIZATION_ROLE ( 'classification_officer' ) ;
#32 = CARTESIAN_POINT ( 'NONE',  ( 4.328868337280526488E-14, 0.9999999999999954481, 12.39837168574085169 ) ) ;
#33 = CARTESIAN_POINT ( 'NONE',  ( 1.319779946082704535E-13, 0.9999999999999963363, 37.79999999999999716 ) ) ;
#34 = ORIENTED_EDGE ( 'NONE', *, *, #113, .T. ) ;
#35 = ADVANCED_FACE ( 'NONE', ( #78, #119 ), #28, .T. ) ;
#36 = CALENDAR_DATE ( 2021, 8, 10 ) ;
#37 = FACE_OUTER_BOUND ( 'NONE', #152, .T. ) ;
#38 = PLANE ( 'NONE',  #11 ) ;
#39 = CC_DESIGN_PERSON_AND_ORGANIZATION_ASSIGNMENT ( #65, #144, ( #105 ) ) ;
#40 = CARTESIAN_POINT ( 'NONE',  ( 1.326762908760390423E-13, -4.653657836759941941E-15, 38.00000000000000000 ) ) ;
#41 = PRODUCT ( '55406', '55406', '', ( #49 ) ) ;
#42 = PLANE ( 'NONE',  #161 ) ;
#43 = CARTESIAN_POINT ( 'NONE',  ( 4.189777606611760026E-14, -1.469576158976823947E-15, 12.00000000000000000 ) ) ;
#44 = LOCAL_TIME ( 7, 15, 32.00000000000000000, #194 ) ;
#45 = APPROVAL_STATUS ( 'not_yet_approved' ) ;
#46 = DESIGN_CONTEXT ( 'detailed design', #17, 'design' ) ;
#47 = PERSON_AND_ORGANIZATION ( #192, #16 ) ;
#48 = CC_DESIGN_PERSON_AND_ORGANIZATION_ASSIGNMENT ( #47, #160, ( #219 ) ) ;
#49 = MECHANICAL_CONTEXT ( 'NONE', #147, 'mechanical' ) ;
#50 = CIRCLE ( 'NONE', #116, 0.7699999999999961320 ) ;
#51 = APPROVAL_PERSON_ORGANIZATION ( #166, #104, #108 ) ;
#52 = APPROVAL_STATUS ( 'not_yet_approved' ) ;
#53 = ADVANCED_BREP_SHAPE_REPRESENTATION ( '55406', ( #24, #22, #25 ), #107 ) ;
#54 = EDGE_LOOP ( 'NONE', ( #186 ) ) ;
#55 = EDGE_CURVE ( 'NONE', #27, #27, #50, .T. ) ;
#56 = EDGE_LOOP ( 'NONE', ( #34 ) ) ;
#57 = PRODUCT_DEFINITION_SHAPE ( 'NONE', 'NONE',  #219 ) ;
#58 = CIRCLE ( 'NONE', #121, 0.9999999999999970024 ) ;
#59 = DIRECTION ( 'NONE',  ( -3.491481338843133355E-15, 1.224646799147353207E-16, -1.000000000000000000 ) ) ;
#60 = PLANE ( 'NONE',  #112 ) ;
#61 = DIRECTION ( 'NONE',  ( -3.491481338843133355E-15, 1.224646799147353207E-16, -1.000000000000000000 ) ) ;
#62 = DIRECTION ( 'NONE',  ( 0.0000000000000000000, 1.000000000000000000, 0.0000000000000000000 ) ) ;
#63 = FACE_OUTER_BOUND ( 'NONE', #56, .T. ) ;
#64 = DATE_AND_TIME ( #140, #158 ) ;
#65 = PERSON_AND_ORGANIZATION ( #192, #16 ) ;
#66 = VERTEX_POINT ( 'NONE', #32 ) ;
#67 = COORDINATED_UNIVERSAL_TIME_OFFSET ( 1, 0, .AHEAD. ) ;
#68 = CONICAL_SURFACE ( 'NONE', #100, 0.9999999999999970024, 0.5235987755982903780 ) ;
#69 = SHAPE_DEFINITION_REPRESENTATION ( #57, #53 ) ;
#70 = APPROVAL ( #45, 'UNSPECIFIED' ) ;
#71 = EDGE_LOOP ( 'NONE', ( #73 ) ) ;
#72 = CC_DESIGN_PERSON_AND_ORGANIZATION_ASSIGNMENT ( #177, #85, ( #105 ) ) ;
#73 = ORIENTED_EDGE ( 'NONE', *, *, #55, .T. ) ;
#74 = ORIENTED_EDGE ( 'NONE', *, *, #99, .T. ) ;
#75 = ORIENTED_EDGE ( 'NONE', *, *, #55, .F. ) ;
#76 = FACE_BOUND ( 'NONE', #29, .T. ) ;
#77 = DIRECTION ( 'NONE',  ( 3.491481338843133355E-15, -1.224646799147353207E-16, 1.000000000000000000 ) ) ;
#78 = FACE_OUTER_BOUND ( 'NONE', #182, .T. ) ;
#79 = AXIS2_PLACEMENT_3D ( 'NONE', #137, #203, #117 ) ;
#80 = EDGE_CURVE ( 'NONE', #181, #181, #184, .T. ) ;
#81 = DIRECTION ( 'NONE',  ( -3.491481338843133355E-15, 1.224646799147353207E-16, -1.000000000000000000 ) ) ;
#82 = DIRECTION ( 'NONE',  ( 3.491481338843133355E-15, -1.224646799147353207E-16, 1.000000000000000000 ) ) ;
#83 =( LENGTH_UNIT ( ) NAMED_UNIT ( * ) SI_UNIT ( .MILLI., .METRE. ) );
#84 = SECURITY_CLASSIFICATION ( '', '', #127 ) ;
#85 = PERSON_AND_ORGANIZATION_ROLE ( 'creator' ) ;
#86 = EDGE_CURVE ( 'NONE', #15, #15, #198, .T. ) ;
#87 = VERTEX_POINT ( 'NONE', #33 ) ;
#88 = DATE_TIME_ROLE ( 'creation_date' ) ;
#89 = CONICAL_SURFACE ( 'NONE', #214, 0.8000000000000009326, 0.7853981633974512766 ) ;
#90 = EDGE_LOOP ( 'NONE', ( #109 ) ) ;
#91 = ADVANCED_FACE ( 'NONE', ( #217, #63 ), #68, .T. ) ;
#92 = COORDINATED_UNIVERSAL_TIME_OFFSET ( 1, 0, .AHEAD. ) ;
#93 = APPROVAL_PERSON_ORGANIZATION ( #164, #178, #208 ) ;
#94 = ORIENTED_EDGE ( 'NONE', *, *, #86, .T. ) ;
#95 = CYLINDRICAL_SURFACE ( 'NONE', #111, 0.7699999999999949107 ) ;
#96 = AXIS2_PLACEMENT_3D ( 'NONE', #114, #12, #23 ) ;
#97 = CARTESIAN_POINT ( 'NONE',  ( 0.0000000000000000000, 0.0000000000000000000, 0.0000000000000000000 ) ) ;
#98 = CARTESIAN_POINT ( 'NONE',  ( 4.189777606611760026E-14, 0.7699999999999946887, 12.00000000000000000 ) ) ;
#99 = EDGE_CURVE ( 'NONE', #162, #162, #133, .T. ) ;
#100 = AXIS2_PLACEMENT_3D ( 'NONE', #115, #220, #175 ) ;
#101 = APPROVAL_PERSON_ORGANIZATION ( #222, #70, #106 ) ;
#102 = CARTESIAN_POINT ( 'NONE',  ( 1.326762908760390423E-13, -4.653657836759941941E-15, 38.00000000000000000 ) ) ;
#103 = DIRECTION ( 'NONE',  ( 0.0000000000000000000, 0.0000000000000000000, 1.000000000000000000 ) ) ;
#104 = APPROVAL ( #19, 'UNSPECIFIED' ) ;
#105 = PRODUCT_DEFINITION_FORMATION_WITH_SPECIFIED_SOURCE ( 'ANY', '', #41, .NOT_KNOWN. ) ;
#106 = APPROVAL_ROLE ( '' ) ;
#107 =( GEOMETRIC_REPRESENTATION_CONTEXT ( 3 ) GLOBAL_UNCERTAINTY_ASSIGNED_CONTEXT ( ( #206 ) ) GLOBAL_UNIT_ASSIGNED_CONTEXT ( ( #83, #197, #180 ) ) REPRESENTATION_CONTEXT ( 'NONE', 'WORKASPACE' ) );
#108 = APPROVAL_ROLE ( '' ) ;
#109 = ORIENTED_EDGE ( 'NONE', *, *, #80, .F. ) ;
#110 = ADVANCED_FACE ( 'NONE', ( #204, #76 ), #89, .T. ) ;
#111 = AXIS2_PLACEMENT_3D ( 'NONE', #171, #187, #10 ) ;
#112 = AXIS2_PLACEMENT_3D ( 'NONE', #200, #59, #172 ) ;
#113 = EDGE_CURVE ( 'NONE', #66, #66, #58, .T. ) ;
#114 = CARTESIAN_POINT ( 'NONE',  ( 1.615378101706958307E-15, -5.665983660458666363E-17, 0.4626626766512225708 ) ) ;
#115 = CARTESIAN_POINT ( 'NONE',  ( 4.328868337280526488E-14, -1.518362619958170657E-15, 12.39837168574085169 ) ) ;
#116 = AXIS2_PLACEMENT_3D ( 'NONE', #43, #81, #159 ) ;
#117 = DIRECTION ( 'NONE',  ( 0.0000000000000000000, 1.000000000000000000, 0.0000000000000000000 ) ) ;
#118 = ADVANCED_FACE ( 'NONE', ( #205 ), #185, .T. ) ;
#119 = FACE_OUTER_BOUND ( 'NONE', #169, .T. ) ;
#120 = CARTESIAN_POINT ( 'NONE',  ( 1.615378101706958307E-15, -5.665983660458666363E-17, 0.4626626766512225708 ) ) ;
#121 = AXIS2_PLACEMENT_3D ( 'NONE', #135, #13, #62 ) ;
#122 = ADVANCED_FACE ( 'NONE', ( #26 ), #60, .F. ) ;
#123 = APPROVAL_DATE_TIME ( #211, #178 ) ;
#124 = PERSON_AND_ORGANIZATION ( #192, #16 ) ;
#125 = AXIS2_PLACEMENT_3D ( 'NONE', #120, #82, #138 ) ;
#126 = APPLICATION_PROTOCOL_DEFINITION ( 'international standard', 'config_control_design', 1994, #17 ) ;
#127 = SECURITY_CLASSIFICATION_LEVEL ( 'unclassified' ) ;
#128 = ORIENTED_EDGE ( 'NONE', *, *, #80, .T. ) ;
#129 = DATE_AND_TIME ( #36, #151 ) ;
#130 = ORIENTED_EDGE ( 'NONE', *, *, #149, .F. ) ;
#131 = ADVANCED_FACE ( 'NONE', ( #191 ), #42, .T. ) ;
#132 = DATE_TIME_ROLE ( 'classification_date' ) ;
#133 = CIRCLE ( 'NONE', #165, 0.7699999999999961320 ) ;
#134 = CARTESIAN_POINT ( 'NONE',  ( 4.189777606611760026E-14, 5.774075163248100884E-33, 12.00000000000000000 ) ) ;
#135 = CARTESIAN_POINT ( 'NONE',  ( 4.328868337280526488E-14, -1.518362619958170657E-15, 12.39837168574085169 ) ) ;
#136 = ADVANCED_FACE ( 'NONE', ( #37 ), #38, .F. ) ;
#137 = CARTESIAN_POINT ( 'NONE',  ( 1.319779946082704535E-13, -4.629164900776995227E-15, 37.79999999999999716 ) ) ;
#138 = DIRECTION ( 'NONE',  ( -5.002415439966887956E-31, -1.000000000000000000, -1.408054769461705775E-16 ) ) ;
#139 = DIRECTION ( 'NONE',  ( -3.491481338843133355E-15, 1.224646799147353207E-16, -1.000000000000000000 ) ) ;
#140 = CALENDAR_DATE ( 2021, 8, 10 ) ;
#141 = CLOSED_SHELL ( 'NONE', ( #136, #91, #35, #110, #122 ) ) ;
#142 = LOCAL_TIME ( 7, 15, 32.00000000000000000, #212 ) ;
#143 = DATE_AND_TIME ( #223, #44 ) ;
#144 = PERSON_AND_ORGANIZATION_ROLE ( 'design_supplier' ) ;
#145 = DIRECTION ( 'NONE',  ( 1.000000000000000000, 0.0000000000000000000, 0.0000000000000000000 ) ) ;
#146 = CALENDAR_DATE ( 2021, 8, 10 ) ;
#147 = APPLICATION_CONTEXT ( 'configuration controlled 3d designs of mechanical parts and assemblies' ) ;
#148 = CALENDAR_DATE ( 2021, 8, 10 ) ;
#149 = EDGE_CURVE ( 'NONE', #87, #87, #179, .T. ) ;
#150 = EDGE_LOOP ( 'NONE', ( #94 ) ) ;
#151 = LOCAL_TIME ( 7, 15, 32.00000000000000000, #92 ) ;
#152 = EDGE_LOOP ( 'NONE', ( #74 ) ) ;
#153 = CC_DESIGN_APPROVAL ( #178, ( #105 ) ) ;
#154 = CARTESIAN_POINT ( 'NONE',  ( 4.189777606611760026E-14, -1.469576158976823947E-15, 12.00000000000000000 ) ) ;
#155 = DIRECTION ( 'NONE',  ( -4.275831445896958607E-31, -1.000000000000000000, -1.224646799147353207E-16 ) ) ;
#156 = DIRECTION ( 'NONE',  ( -3.491481338843133355E-15, 1.224646799147353207E-16, -1.000000000000000000 ) ) ;
#157 = AXIS2_PLACEMENT_3D ( 'NONE', #97, #156, #173 ) ;
#158 = LOCAL_TIME ( 7, 15, 32.00000000000000000, #193 ) ;
#159 = DIRECTION ( 'NONE',  ( 0.0000000000000000000, 1.000000000000000000, 0.0000000000000000000 ) ) ;
#160 = PERSON_AND_ORGANIZATION_ROLE ( 'creator' ) ;
#161 = AXIS2_PLACEMENT_3D ( 'NONE', #134, #218, #202 ) ;
#162 = VERTEX_POINT ( 'NONE', #14 ) ;
#163 = CC_DESIGN_DATE_AND_TIME_ASSIGNMENT ( #129, #132, ( #84 ) ) ;
#164 = PERSON_AND_ORGANIZATION ( #192, #16 ) ;
#165 = AXIS2_PLACEMENT_3D ( 'NONE', #154, #139, #7 ) ;
#166 = PERSON_AND_ORGANIZATION ( #192, #16 ) ;
#167 = DATE_AND_TIME ( #148, #142 ) ;
#168 = ORIENTED_EDGE ( 'NONE', *, *, #149, .T. ) ;
#169 = EDGE_LOOP ( 'NONE', ( #168 ) ) ;
#170 = CC_DESIGN_SECURITY_CLASSIFICATION ( #84, ( #105 ) ) ;
#171 = CARTESIAN_POINT ( 'NONE',  ( 0.0000000000000000000, 0.0000000000000000000, 0.0000000000000000000 ) ) ;
#172 = DIRECTION ( 'NONE',  ( 4.275831445896958607E-31, 1.000000000000000000, 1.224646799147353207E-16 ) ) ;
#173 = DIRECTION ( 'NONE',  ( 4.275831445896957731E-31, 1.000000000000000000, 1.224646799147353454E-16 ) ) ;
#174 = PRODUCT_RELATED_PRODUCT_CATEGORY ( 'detail', '', ( #41 ) ) ;
#175 = DIRECTION ( 'NONE',  ( 0.0000000000000000000, -1.000000000000000000, 0.0000000000000000000 ) ) ;
#176 = CARTESIAN_POINT ( 'NONE',  ( 1.326762908760390423E-13, 0.7999999999999962697, 38.00000000000000000 ) ) ;
#177 = PERSON_AND_ORGANIZATION ( #192, #16 ) ;
#178 = APPROVAL ( #52, 'UNSPECIFIED' ) ;
#179 = CIRCLE ( 'NONE', #79, 1.000000000000000888 ) ;
#180 =( NAMED_UNIT ( * ) SI_UNIT ( $, .STERADIAN. ) SOLID_ANGLE_UNIT ( ) );
#181 = VERTEX_POINT ( 'NONE', #176 ) ;
#182 = EDGE_LOOP ( 'NONE', ( #213 ) ) ;
#183 = APPROVAL_DATE_TIME ( #167, #104 ) ;
#184 = CIRCLE ( 'NONE', #210, 0.8000000000000009326 ) ;
#185 = CONICAL_SURFACE ( 'NONE', #125, 0.7699999999999935785, 1.029744258676649649 ) ;
#186 = ORIENTED_EDGE ( 'NONE', *, *, #86, .F. ) ;
#187 = DIRECTION ( 'NONE',  ( -3.491481338843133355E-15, 1.224646799147353207E-16, -1.000000000000000000 ) ) ;
#188 = DIRECTION ( 'NONE',  ( -3.491481338843133355E-15, 1.224646799147353207E-16, -1.000000000000000000 ) ) ;
#189 = FACE_OUTER_BOUND ( 'NONE', #54, .T. ) ;
#190 = FACE_OUTER_BOUND ( 'NONE', #71, .T. ) ;
#191 = FACE_OUTER_BOUND ( 'NONE', #20, .T. ) ;
#192 = PERSON ( 'UNSPECIFIED', 'UNSPECIFIED', 'UNSPECIFIED', ('UNSPECIFIED'), ('UNSPECIFIED'), ('UNSPECIFIED') ) ;
#193 = COORDINATED_UNIVERSAL_TIME_OFFSET ( 1, 0, .AHEAD. ) ;
#194 = COORDINATED_UNIVERSAL_TIME_OFFSET ( 1, 0, .AHEAD. ) ;
#195 = PERSON_AND_ORGANIZATION ( #192, #16 ) ;
#196 = CARTESIAN_POINT ( 'NONE',  ( 0.0000000000000000000, 0.0000000000000000000, 0.0000000000000000000 ) ) ;
#197 =( NAMED_UNIT ( * ) PLANE_ANGLE_UNIT ( ) SI_UNIT ( $, .RADIAN. ) );
#198 = CIRCLE ( 'NONE', #96, 0.7699999999999935785 ) ;
#199 = CC_DESIGN_PERSON_AND_ORGANIZATION_ASSIGNMENT ( #124, #31, ( #84 ) ) ;
#200 = CARTESIAN_POINT ( 'NONE',  ( 1.326762908760390423E-13, 5.999039130647367482E-33, 38.00000000000000000 ) ) ;
#201 = CC_DESIGN_PERSON_AND_ORGANIZATION_ASSIGNMENT ( #195, #209, ( #41 ) ) ;
#202 = DIRECTION ( 'NONE',  ( -4.275831445896958607E-31, -1.000000000000000000, -1.224646799147353207E-16 ) ) ;
#203 = DIRECTION ( 'NONE',  ( -3.491481338843133355E-15, 1.224646799147353207E-16, -1.000000000000000000 ) ) ;
#204 = FACE_OUTER_BOUND ( 'NONE', #3, .T. ) ;
#205 = FACE_OUTER_BOUND ( 'NONE', #150, .T. ) ;
#206 = UNCERTAINTY_MEASURE_WITH_UNIT (LENGTH_MEASURE( 1.000000000000000082E-05 ), #83, 'distance_accuracy_value', 'NONE');
#207 = APPROVAL_DATE_TIME ( #64, #70 ) ;
#208 = APPROVAL_ROLE ( '' ) ;
#209 = PERSON_AND_ORGANIZATION_ROLE ( 'design_owner' ) ;
#210 = AXIS2_PLACEMENT_3D ( 'NONE', #102, #188, #221 ) ;
#211 = DATE_AND_TIME ( #146, #2 ) ;
#212 = COORDINATED_UNIVERSAL_TIME_OFFSET ( 1, 0, .AHEAD. ) ;
#213 = ORIENTED_EDGE ( 'NONE', *, *, #113, .F. ) ;
#214 = AXIS2_PLACEMENT_3D ( 'NONE', #40, #61, #216 ) ;
#215 = CC_DESIGN_APPROVAL ( #104, ( #84 ) ) ;
#216 = DIRECTION ( 'NONE',  ( 0.0000000000000000000, 1.000000000000000000, 0.0000000000000000000 ) ) ;
#217 = FACE_BOUND ( 'NONE', #4, .T. ) ;
#218 = DIRECTION ( 'NONE',  ( 3.491481338843133355E-15, -1.224646799147353207E-16, 1.000000000000000000 ) ) ;
#219 = PRODUCT_DEFINITION ( 'UNKNOWN', '', #105, #46 ) ;
#220 = DIRECTION ( 'NONE',  ( 3.491481338843133355E-15, -1.224646799147353207E-16, 1.000000000000000000 ) ) ;
#221 = DIRECTION ( 'NONE',  ( 0.0000000000000000000, 1.000000000000000000, 0.0000000000000000000 ) ) ;
#222 = PERSON_AND_ORGANIZATION ( #192, #16 ) ;
#223 = CALENDAR_DATE ( 2021, 8, 10 ) ;
ENDSEC;
END-ISO-10303-21;
