ISO-10303-21;
HEADER;
FILE_DESCRIPTION (( 'STEP AP203' ),
    '1' );
FILE_NAME ('55405.step',
    '2021-10-08T05:15:31',
    ( '' ),
    ( '' ),
    'SwSTEP 2.0',
    'SolidWorks 2019',
    '' );
FILE_SCHEMA (( 'CONFIG_CONTROL_DESIGN' ));
ENDSEC;

DATA;
#1 = CARTESIAN_POINT ( 'NONE',  ( 0.0000000000000000000, 0.0000000000000000000, 0.0000000000000000000 ) ) ;
#2 = EDGE_LOOP ( 'NONE', ( #142 ) ) ;
#3 = CC_DESIGN_DATE_AND_TIME_ASSIGNMENT ( #219, #90, ( #191 ) ) ;
#4 = DIRECTION ( 'NONE',  ( 0.0000000000000000000, 1.000000000000000000, 0.0000000000000000000 ) ) ;
#5 = MANIFOLD_SOLID_BREP ( 'Corps-Déplacer/Copier1[2]', #150 ) ;
#6 = CARTESIAN_POINT ( 'NONE',  ( 4.189777606611760026E-14, 0.7649999999999931299, 12.00000000000000000 ) ) ;
#7 = DIRECTION ( 'NONE',  ( -3.491481338843133355E-15, 1.224646799147353207E-16, -1.000000000000000000 ) ) ;
#8 = LOCAL_TIME ( 7, 15, 31.00000000000000000, #202 ) ;
#9 = CARTESIAN_POINT ( 'NONE',  ( 4.189777606611760026E-14, -1.469576158976823947E-15, 12.00000000000000000 ) ) ;
#10 = PERSON_AND_ORGANIZATION_ROLE ( 'design_owner' ) ;
#11 = VERTEX_POINT ( 'NONE', #6 ) ;
#12 = APPROVAL_ROLE ( '' ) ;
#13 = SECURITY_CLASSIFICATION_LEVEL ( 'unclassified' ) ;
#14 = APPROVAL_DATE_TIME ( #35, #89 ) ;
#15 = CC_DESIGN_PERSON_AND_ORGANIZATION_ASSIGNMENT ( #84, #69, ( #110 ) ) ;
#16 = CALENDAR_DATE ( 2021, 8, 10 ) ;
#17 = DESIGN_CONTEXT ( 'detailed design', #55, 'design' ) ;
#18 = COORDINATED_UNIVERSAL_TIME_OFFSET ( 1, 0, .AHEAD. ) ;
#19 = CARTESIAN_POINT ( 'NONE',  ( 0.0000000000000000000, 0.0000000000000000000, 0.0000000000000000000 ) ) ;
#20 = CIRCLE ( 'NONE', #145, 0.7649999999999936851 ) ;
#21 = AXIS2_PLACEMENT_3D ( 'NONE', #99, #212, #100 ) ;
#22 = ADVANCED_FACE ( 'NONE', ( #23, #157 ), #108, .T. ) ;
#23 = FACE_OUTER_BOUND ( 'NONE', #75, .T. ) ;
#24 = ORIENTED_EDGE ( 'NONE', *, *, #38, .T. ) ;
#25 = CARTESIAN_POINT ( 'NONE',  ( 1.326762908760390423E-13, -4.653657836759941941E-15, 38.00000000000000000 ) ) ;
#26 = ADVANCED_FACE ( 'NONE', ( #124, #189 ), #71, .T. ) ;
#27 = CLOSED_SHELL ( 'NONE', ( #136, #200, #66, #26, #196 ) ) ;
#28 = EDGE_LOOP ( 'NONE', ( #222 ) ) ;
#29 = AXIS2_PLACEMENT_3D ( 'NONE', #198, #7, #82 ) ;
#30 = CARTESIAN_POINT ( 'NONE',  ( 4.189777606611760026E-14, -1.469576158976823947E-15, 12.00000000000000000 ) ) ;
#31 = PLANE ( 'NONE',  #29 ) ;
#32 = APPLICATION_PROTOCOL_DEFINITION ( 'international standard', 'config_control_design', 1994, #55 ) ;
#33 = FACE_OUTER_BOUND ( 'NONE', #59, .T. ) ;
#34 = FACE_BOUND ( 'NONE', #91, .T. ) ;
#35 = DATE_AND_TIME ( #184, #118 ) ;
#36 = AXIS2_PLACEMENT_3D ( 'NONE', #25, #141, #62 ) ;
#37 = APPROVAL_ROLE ( '' ) ;
#38 = EDGE_CURVE ( 'NONE', #130, #130, #137, .T. ) ;
#39 = CALENDAR_DATE ( 2021, 8, 10 ) ;
#40 = DATE_AND_TIME ( #107, #121 ) ;
#41 = DIRECTION ( 'NONE',  ( 0.0000000000000000000, 1.000000000000000000, 0.0000000000000000000 ) ) ;
#42 = PRODUCT_DEFINITION_SHAPE ( 'NONE', 'NONE',  #213 ) ;
#43 = DIRECTION ( 'NONE',  ( -3.491481338843133355E-15, 1.224646799147353207E-16, -1.000000000000000000 ) ) ;
#44 = AXIS2_PLACEMENT_3D ( 'NONE', #183, #199, #181 ) ;
#45 = ORIENTED_EDGE ( 'NONE', *, *, #129, .T. ) ;
#46 = EDGE_LOOP ( 'NONE', ( #24 ) ) ;
#47 = ORIENTED_EDGE ( 'NONE', *, *, #85, .T. ) ;
#48 =( LENGTH_UNIT ( ) NAMED_UNIT ( * ) SI_UNIT ( .MILLI., .METRE. ) );
#49 = DIRECTION ( 'NONE',  ( 0.0000000000000000000, 0.0000000000000000000, 1.000000000000000000 ) ) ;
#50 = CARTESIAN_POINT ( 'NONE',  ( 4.331892048816804623E-14, 0.9999999999999954481, 12.40703193977869567 ) ) ;
#51 = PLANE ( 'NONE',  #21 ) ;
#52 = CC_DESIGN_PERSON_AND_ORGANIZATION_ASSIGNMENT ( #149, #10, ( #95 ) ) ;
#53 = PERSON_AND_ORGANIZATION ( #106, #97 ) ;
#54 = CC_DESIGN_APPROVAL ( #89, ( #213 ) ) ;
#55 = APPLICATION_CONTEXT ( 'configuration controlled 3d designs of mechanical parts and assemblies' ) ;
#56 = PERSON_AND_ORGANIZATION ( #106, #97 ) ;
#57 = CIRCLE ( 'NONE', #187, 0.7649999999999946843 ) ;
#58 = UNCERTAINTY_MEASURE_WITH_UNIT (LENGTH_MEASURE( 1.000000000000000082E-05 ), #48, 'distance_accuracy_value', 'NONE');
#59 = EDGE_LOOP ( 'NONE', ( #161 ) ) ;
#60 = EDGE_LOOP ( 'NONE', ( #173 ) ) ;
#61 = DIRECTION ( 'NONE',  ( -3.491481338843133355E-15, 1.224646799147353207E-16, -1.000000000000000000 ) ) ;
#62 = DIRECTION ( 'NONE',  ( 0.0000000000000000000, 1.000000000000000000, 0.0000000000000000000 ) ) ;
#63 = VERTEX_POINT ( 'NONE', #134 ) ;
#64 = VERTEX_POINT ( 'NONE', #50 ) ;
#65 = PERSON_AND_ORGANIZATION ( #106, #97 ) ;
#66 = ADVANCED_FACE ( 'NONE', ( #77, #76 ), #127, .T. ) ;
#67 = CONICAL_SURFACE ( 'NONE', #44, 0.9999999999999970024, 0.5235987755982924874 ) ;
#68 = SHAPE_DEFINITION_REPRESENTATION ( #42, #133 ) ;
#69 = PERSON_AND_ORGANIZATION_ROLE ( 'creator' ) ;
#70 = CIRCLE ( 'NONE', #36, 0.8000000000000009326 ) ;
#71 = CONICAL_SURFACE ( 'NONE', #79, 0.8000000000000009326, 0.7853981633974512766 ) ;
#72 = DIRECTION ( 'NONE',  ( 4.275831445896958607E-31, 1.000000000000000000, 1.224646799147353207E-16 ) ) ;
#73 = DIRECTION ( 'NONE',  ( 5.035110965718305335E-31, 1.000000000000000000, 1.417257741811128635E-16 ) ) ;
#74 = ADVANCED_FACE ( 'NONE', ( #158 ), #92, .T. ) ;
#75 = EDGE_LOOP ( 'NONE', ( #109 ) ) ;
#76 = FACE_OUTER_BOUND ( 'NONE', #46, .T. ) ;
#77 = FACE_OUTER_BOUND ( 'NONE', #2, .T. ) ;
#78 = CC_DESIGN_PERSON_AND_ORGANIZATION_ASSIGNMENT ( #53, #119, ( #191 ) ) ;
#79 = AXIS2_PLACEMENT_3D ( 'NONE', #223, #113, #139 ) ;
#80 = DIRECTION ( 'NONE',  ( -3.491481338843133355E-15, 1.224646799147353207E-16, -1.000000000000000000 ) ) ;
#81 =( NAMED_UNIT ( * ) PLANE_ANGLE_UNIT ( ) SI_UNIT ( $, .RADIAN. ) );
#82 = DIRECTION ( 'NONE',  ( 4.275831445896958607E-31, 1.000000000000000000, 1.224646799147353207E-16 ) ) ;
#83 = CC_DESIGN_APPROVAL ( #140, ( #110 ) ) ;
#84 = PERSON_AND_ORGANIZATION ( #106, #97 ) ;
#85 = EDGE_CURVE ( 'NONE', #63, #63, #20, .T. ) ;
#86 =( GEOMETRIC_REPRESENTATION_CONTEXT ( 3 ) GLOBAL_UNCERTAINTY_ASSIGNED_CONTEXT ( ( #58 ) ) GLOBAL_UNIT_ASSIGNED_CONTEXT ( ( #48, #81, #179 ) ) REPRESENTATION_CONTEXT ( 'NONE', 'WORKASPACE' ) );
#87 = PERSON_AND_ORGANIZATION ( #106, #97 ) ;
#88 = EDGE_LOOP ( 'NONE', ( #159 ) ) ;
#89 = APPROVAL ( #201, 'UNSPECIFIED' ) ;
#90 = DATE_TIME_ROLE ( 'classification_date' ) ;
#91 = EDGE_LOOP ( 'NONE', ( #177 ) ) ;
#92 = CONICAL_SURFACE ( 'NONE', #122, 0.7649999999999936851, 1.029744258676649871 ) ;
#93 = AXIS2_PLACEMENT_3D ( 'NONE', #94, #193, #41 ) ;
#94 = CARTESIAN_POINT ( 'NONE',  ( 4.331892048816804623E-14, -1.519423195196895701E-15, 12.40703193977869567 ) ) ;
#95 = PRODUCT ( '55405', '55405', '', ( #147 ) ) ;
#96 = DIRECTION ( 'NONE',  ( 3.491481338843133355E-15, -1.224646799147353207E-16, 1.000000000000000000 ) ) ;
#97 = ORGANIZATION ( 'UNSPECIFIED', 'UNSPECIFIED', '' ) ;
#98 = DIRECTION ( 'NONE',  ( -3.491481338843133355E-15, 1.224646799147353207E-16, -1.000000000000000000 ) ) ;
#99 = CARTESIAN_POINT ( 'NONE',  ( 4.189777606611760026E-14, 5.736581168681542538E-33, 12.00000000000000000 ) ) ;
#100 = DIRECTION ( 'NONE',  ( -4.275831445896958607E-31, -1.000000000000000000, -1.224646799147353207E-16 ) ) ;
#101 = APPROVAL_ROLE ( '' ) ;
#102 = CC_DESIGN_PERSON_AND_ORGANIZATION_ASSIGNMENT ( #203, #170, ( #110 ) ) ;
#103 = FACE_OUTER_BOUND ( 'NONE', #28, .T. ) ;
#104 = PERSON_AND_ORGANIZATION ( #106, #97 ) ;
#105 = AXIS2_PLACEMENT_3D ( 'NONE', #172, #61, #4 ) ;
#106 = PERSON ( 'UNSPECIFIED', 'UNSPECIFIED', 'UNSPECIFIED', ('UNSPECIFIED'), ('UNSPECIFIED'), ('UNSPECIFIED') ) ;
#107 = CALENDAR_DATE ( 2021, 8, 10 ) ;
#108 = CYLINDRICAL_SURFACE ( 'NONE', #195, 0.7649999999999942402 ) ;
#109 = ORIENTED_EDGE ( 'NONE', *, *, #85, .F. ) ;
#110 = PRODUCT_DEFINITION_FORMATION_WITH_SPECIFIED_SOURCE ( 'ANY', '', #95, .NOT_KNOWN. ) ;
#111 = DIRECTION ( 'NONE',  ( -4.275831445896958607E-31, -1.000000000000000000, -1.224646799147353207E-16 ) ) ;
#112 = DIRECTION ( 'NONE',  ( -3.491481338843133355E-15, 1.224646799147353207E-16, -1.000000000000000000 ) ) ;
#113 = DIRECTION ( 'NONE',  ( -3.491481338843133355E-15, 1.224646799147353207E-16, -1.000000000000000000 ) ) ;
#114 = CC_DESIGN_PERSON_AND_ORGANIZATION_ASSIGNMENT ( #104, #169, ( #213 ) ) ;
#115 = APPROVAL_PERSON_ORGANIZATION ( #65, #89, #101 ) ;
#116 = APPROVAL_STATUS ( 'not_yet_approved' ) ;
#117 = COORDINATED_UNIVERSAL_TIME_OFFSET ( 1, 0, .AHEAD. ) ;
#118 = LOCAL_TIME ( 7, 15, 31.00000000000000000, #166 ) ;
#119 = PERSON_AND_ORGANIZATION_ROLE ( 'classification_officer' ) ;
#120 = DATE_AND_TIME ( #16, #165 ) ;
#121 = LOCAL_TIME ( 7, 15, 31.00000000000000000, #221 ) ;
#122 = AXIS2_PLACEMENT_3D ( 'NONE', #176, #207, #209 ) ;
#123 = CARTESIAN_POINT ( 'NONE',  ( 4.189777606611760026E-14, 5.736581168681542538E-33, 12.00000000000000000 ) ) ;
#124 = FACE_OUTER_BOUND ( 'NONE', #60, .T. ) ;
#125 = PRODUCT_RELATED_PRODUCT_CATEGORY ( 'detail', '', ( #95 ) ) ;
#126 = FACE_OUTER_BOUND ( 'NONE', #88, .T. ) ;
#127 = CYLINDRICAL_SURFACE ( 'NONE', #185, 0.9999999999999988898 ) ;
#128 = EDGE_LOOP ( 'NONE', ( #143 ) ) ;
#129 = EDGE_CURVE ( 'NONE', #163, #163, #70, .T. ) ;
#130 = VERTEX_POINT ( 'NONE', #215 ) ;
#131 = CARTESIAN_POINT ( 'NONE',  ( 0.0000000000000000000, 0.0000000000000000000, 0.0000000000000000000 ) ) ;
#132 = DIRECTION ( 'NONE',  ( 0.0000000000000000000, 1.000000000000000000, 0.0000000000000000000 ) ) ;
#133 = ADVANCED_BREP_SHAPE_REPRESENTATION ( '55405', ( #153, #5, #151 ), #86 ) ;
#134 = CARTESIAN_POINT ( 'NONE',  ( 1.604888633514056419E-15, 0.7649999999999935740, 0.4596583735560848538 ) ) ;
#135 = AXIS2_PLACEMENT_3D ( 'NONE', #123, #96, #111 ) ;
#136 = ADVANCED_FACE ( 'NONE', ( #126 ), #210, .F. ) ;
#137 = CIRCLE ( 'NONE', #105, 1.000000000000000888 ) ;
#138 = APPROVAL_PERSON_ORGANIZATION ( #87, #180, #37 ) ;
#139 = DIRECTION ( 'NONE',  ( 0.0000000000000000000, 1.000000000000000000, 0.0000000000000000000 ) ) ;
#140 = APPROVAL ( #116, 'UNSPECIFIED' ) ;
#141 = DIRECTION ( 'NONE',  ( -3.491481338843133355E-15, 1.224646799147353207E-16, -1.000000000000000000 ) ) ;
#142 = ORIENTED_EDGE ( 'NONE', *, *, #152, .F. ) ;
#143 = ORIENTED_EDGE ( 'NONE', *, *, #220, .T. ) ;
#144 = EDGE_LOOP ( 'NONE', ( #45 ) ) ;
#145 = AXIS2_PLACEMENT_3D ( 'NONE', #175, #43, #73 ) ;
#146 = APPLICATION_CONTEXT ( 'configuration controlled 3d designs of mechanical parts and assemblies' ) ;
#147 = MECHANICAL_CONTEXT ( 'NONE', #146, 'mechanical' ) ;
#148 = CARTESIAN_POINT ( 'NONE',  ( 1.326762908760390423E-13, 0.7999999999999962697, 38.00000000000000000 ) ) ;
#149 = PERSON_AND_ORGANIZATION ( #106, #97 ) ;
#150 = CLOSED_SHELL ( 'NONE', ( #74, #22, #204 ) ) ;
#151 = AXIS2_PLACEMENT_3D ( 'NONE', #131, #49, #167 ) ;
#152 = EDGE_CURVE ( 'NONE', #64, #64, #162, .T. ) ;
#153 = MANIFOLD_SOLID_BREP ( 'Corps-Déplacer/Copier1[1]', #27 ) ;
#154 = APPROVAL_STATUS ( 'not_yet_approved' ) ;
#155 = CALENDAR_DATE ( 2021, 8, 10 ) ;
#156 = CC_DESIGN_APPROVAL ( #180, ( #191 ) ) ;
#157 = FACE_OUTER_BOUND ( 'NONE', #128, .T. ) ;
#158 = FACE_OUTER_BOUND ( 'NONE', #208, .T. ) ;
#159 = ORIENTED_EDGE ( 'NONE', *, *, #160, .T. ) ;
#160 = EDGE_CURVE ( 'NONE', #11, #11, #216, .T. ) ;
#161 = ORIENTED_EDGE ( 'NONE', *, *, #129, .F. ) ;
#162 = CIRCLE ( 'NONE', #93, 0.9999999999999970024 ) ;
#163 = VERTEX_POINT ( 'NONE', #148 ) ;
#164 = APPLICATION_PROTOCOL_DEFINITION ( 'international standard', 'config_control_design', 1994, #146 ) ;
#165 = LOCAL_TIME ( 7, 15, 31.00000000000000000, #18 ) ;
#166 = COORDINATED_UNIVERSAL_TIME_OFFSET ( 1, 0, .AHEAD. ) ;
#167 = DIRECTION ( 'NONE',  ( 1.000000000000000000, 0.0000000000000000000, 0.0000000000000000000 ) ) ;
#168 = DIRECTION ( 'NONE',  ( -3.491481338843133355E-15, 1.224646799147353207E-16, -1.000000000000000000 ) ) ;
#169 = PERSON_AND_ORGANIZATION_ROLE ( 'creator' ) ;
#170 = PERSON_AND_ORGANIZATION_ROLE ( 'design_supplier' ) ;
#171 = DATE_TIME_ROLE ( 'creation_date' ) ;
#172 = CARTESIAN_POINT ( 'NONE',  ( 1.319779946082704535E-13, -4.629164900776995227E-15, 37.79999999999999716 ) ) ;
#173 = ORIENTED_EDGE ( 'NONE', *, *, #38, .F. ) ;
#174 = CC_DESIGN_SECURITY_CLASSIFICATION ( #191, ( #110 ) ) ;
#175 = CARTESIAN_POINT ( 'NONE',  ( 1.604888633514056024E-15, -5.629191558767376322E-17, 0.4596583735560847428 ) ) ;
#176 = CARTESIAN_POINT ( 'NONE',  ( 1.604888633514056024E-15, -5.629191558767376322E-17, 0.4596583735560847428 ) ) ;
#177 = ORIENTED_EDGE ( 'NONE', *, *, #160, .F. ) ;
#178 = APPROVAL_PERSON_ORGANIZATION ( #56, #140, #12 ) ;
#179 =( NAMED_UNIT ( * ) SI_UNIT ( $, .STERADIAN. ) SOLID_ANGLE_UNIT ( ) );
#180 = APPROVAL ( #154, 'UNSPECIFIED' ) ;
#181 = DIRECTION ( 'NONE',  ( 0.0000000000000000000, -1.000000000000000000, 0.0000000000000000000 ) ) ;
#182 = CARTESIAN_POINT ( 'NONE',  ( 4.189777606611760026E-14, 0.7649999999999931299, 12.00000000000000000 ) ) ;
#183 = CARTESIAN_POINT ( 'NONE',  ( 4.331892048816804623E-14, -1.519423195196895701E-15, 12.40703193977869567 ) ) ;
#184 = CALENDAR_DATE ( 2021, 8, 10 ) ;
#185 = AXIS2_PLACEMENT_3D ( 'NONE', #19, #112, #206 ) ;
#186 = APPROVAL_DATE_TIME ( #120, #140 ) ;
#187 = AXIS2_PLACEMENT_3D ( 'NONE', #9, #168, #132 ) ;
#188 = CC_DESIGN_DATE_AND_TIME_ASSIGNMENT ( #40, #171, ( #213 ) ) ;
#189 = FACE_BOUND ( 'NONE', #144, .T. ) ;
#190 = EDGE_LOOP ( 'NONE', ( #192 ) ) ;
#191 = SECURITY_CLASSIFICATION ( '', '', #13 ) ;
#192 = ORIENTED_EDGE ( 'NONE', *, *, #220, .F. ) ;
#193 = DIRECTION ( 'NONE',  ( -3.491481338843133355E-15, 1.224646799147353207E-16, -1.000000000000000000 ) ) ;
#194 = DIRECTION ( 'NONE',  ( 0.0000000000000000000, 1.000000000000000000, 0.0000000000000000000 ) ) ;
#195 = AXIS2_PLACEMENT_3D ( 'NONE', #1, #98, #72 ) ;
#196 = ADVANCED_FACE ( 'NONE', ( #33 ), #31, .F. ) ;
#197 = VERTEX_POINT ( 'NONE', #182 ) ;
#198 = CARTESIAN_POINT ( 'NONE',  ( 1.326762908760390423E-13, 5.999039130647367482E-33, 38.00000000000000000 ) ) ;
#199 = DIRECTION ( 'NONE',  ( 3.491481338843133355E-15, -1.224646799147353207E-16, 1.000000000000000000 ) ) ;
#200 = ADVANCED_FACE ( 'NONE', ( #34, #103 ), #67, .T. ) ;
#201 = APPROVAL_STATUS ( 'not_yet_approved' ) ;
#202 = COORDINATED_UNIVERSAL_TIME_OFFSET ( 1, 0, .AHEAD. ) ;
#203 = PERSON_AND_ORGANIZATION ( #106, #97 ) ;
#204 = ADVANCED_FACE ( 'NONE', ( #214 ), #51, .T. ) ;
#205 = LOCAL_TIME ( 7, 15, 31.00000000000000000, #117 ) ;
#206 = DIRECTION ( 'NONE',  ( 4.275831445896957731E-31, 1.000000000000000000, 1.224646799147353454E-16 ) ) ;
#207 = DIRECTION ( 'NONE',  ( 3.491481338843133355E-15, -1.224646799147353207E-16, 1.000000000000000000 ) ) ;
#208 = EDGE_LOOP ( 'NONE', ( #47 ) ) ;
#209 = DIRECTION ( 'NONE',  ( -5.035110965718305335E-31, -1.000000000000000000, -1.417257741811128635E-16 ) ) ;
#210 = PLANE ( 'NONE',  #135 ) ;
#211 = AXIS2_PLACEMENT_3D ( 'NONE', #30, #80, #194 ) ;
#212 = DIRECTION ( 'NONE',  ( 3.491481338843133355E-15, -1.224646799147353207E-16, 1.000000000000000000 ) ) ;
#213 = PRODUCT_DEFINITION ( 'UNKNOWN', '', #110, #17 ) ;
#214 = FACE_OUTER_BOUND ( 'NONE', #190, .T. ) ;
#215 = CARTESIAN_POINT ( 'NONE',  ( 1.319779946082704535E-13, 0.9999999999999963363, 37.79999999999999716 ) ) ;
#216 = CIRCLE ( 'NONE', #211, 0.7649999999999946843 ) ;
#217 = APPROVAL_DATE_TIME ( #218, #180 ) ;
#218 = DATE_AND_TIME ( #39, #8 ) ;
#219 = DATE_AND_TIME ( #155, #205 ) ;
#220 = EDGE_CURVE ( 'NONE', #197, #197, #57, .T. ) ;
#221 = COORDINATED_UNIVERSAL_TIME_OFFSET ( 1, 0, .AHEAD. ) ;
#222 = ORIENTED_EDGE ( 'NONE', *, *, #152, .T. ) ;
#223 = CARTESIAN_POINT ( 'NONE',  ( 1.326762908760390423E-13, -4.653657836759941941E-15, 38.00000000000000000 ) ) ;
ENDSEC;
END-ISO-10303-21;
