ISO-10303-21;
HEADER;
FILE_DESCRIPTION (( 'STEP AP203' ),
    '1' );
FILE_NAME ('55404.step',
    '2021-10-08T05:15:31',
    ( '' ),
    ( '' ),
    'SwSTEP 2.0',
    'SolidWorks 2019',
    '' );
FILE_SCHEMA (( 'CONFIG_CONTROL_DESIGN' ));
ENDSEC;

DATA;
#1 = APPROVAL_DATE_TIME ( #154, #184 ) ;
#2 = EDGE_CURVE ( 'NONE', #198, #198, #130, .T. ) ;
#3 = DATE_TIME_ROLE ( 'creation_date' ) ;
#4 = AXIS2_PLACEMENT_3D ( 'NONE', #158, #5, #41 ) ;
#5 = DIRECTION ( 'NONE',  ( -3.491481338843133355E-15, 1.224646799147353207E-16, -1.000000000000000000 ) ) ;
#6 = PRODUCT_DEFINITION_SHAPE ( 'NONE', 'NONE',  #128 ) ;
#7 = ADVANCED_FACE ( 'NONE', ( #175, #87 ), #145, .T. ) ;
#8 = FACE_OUTER_BOUND ( 'NONE', #142, .T. ) ;
#9 = DIRECTION ( 'NONE',  ( -3.491481338843133355E-15, 1.224646799147353207E-16, -1.000000000000000000 ) ) ;
#10 = CARTESIAN_POINT ( 'NONE',  ( 1.319779946082704535E-13, 0.9999999999999963363, 37.79999999999999716 ) ) ;
#11 = AXIS2_PLACEMENT_3D ( 'NONE', #161, #45, #25 ) ;
#12 = FACE_OUTER_BOUND ( 'NONE', #195, .T. ) ;
#13 = UNCERTAINTY_MEASURE_WITH_UNIT (LENGTH_MEASURE( 1.000000000000000082E-05 ), #165, 'distance_accuracy_value', 'NONE');
#14 = FACE_OUTER_BOUND ( 'NONE', #123, .T. ) ;
#15 =( GEOMETRIC_REPRESENTATION_CONTEXT ( 3 ) GLOBAL_UNCERTAINTY_ASSIGNED_CONTEXT ( ( #13 ) ) GLOBAL_UNIT_ASSIGNED_CONTEXT ( ( #165, #44, #189 ) ) REPRESENTATION_CONTEXT ( 'NONE', 'WORKASPACE' ) );
#16 = CC_DESIGN_PERSON_AND_ORGANIZATION_ASSIGNMENT ( #117, #135, ( #207 ) ) ;
#17 = APPROVAL_ROLE ( '' ) ;
#18 = CALENDAR_DATE ( 2021, 8, 10 ) ;
#19 = SHAPE_DEFINITION_REPRESENTATION ( #6, #40 ) ;
#20 = AXIS2_PLACEMENT_3D ( 'NONE', #181, #182, #115 ) ;
#21 = COORDINATED_UNIVERSAL_TIME_OFFSET ( 1, 0, .AHEAD. ) ;
#22 = EDGE_LOOP ( 'NONE', ( #160 ) ) ;
#23 = DIRECTION ( 'NONE',  ( -3.491481338843133355E-15, 1.224646799147353207E-16, -1.000000000000000000 ) ) ;
#24 = EDGE_LOOP ( 'NONE', ( #106 ) ) ;
#25 = DIRECTION ( 'NONE',  ( 4.275831445896957731E-31, 1.000000000000000000, 1.224646799147353207E-16 ) ) ;
#26 = CIRCLE ( 'NONE', #118, 0.7599999999999947908 ) ;
#27 = CC_DESIGN_PERSON_AND_ORGANIZATION_ASSIGNMENT ( #185, #173, ( #128 ) ) ;
#28 = DIRECTION ( 'NONE',  ( -3.491481338843133355E-15, 1.224646799147353207E-16, -1.000000000000000000 ) ) ;
#29 = CARTESIAN_POINT ( 'NONE',  ( 1.326762908760390423E-13, -4.653657836759941941E-15, 38.00000000000000000 ) ) ;
#30 = AXIS2_PLACEMENT_3D ( 'NONE', #167, #97, #215 ) ;
#31 = CARTESIAN_POINT ( 'NONE',  ( 4.189777606611760026E-14, -1.469576158976823947E-15, 12.00000000000000000 ) ) ;
#32 = DATE_AND_TIME ( #138, #140 ) ;
#33 = PERSON_AND_ORGANIZATION ( #156, #96 ) ;
#34 = CIRCLE ( 'NONE', #74, 0.9999999999999970024 ) ;
#35 = DATE_AND_TIME ( #205, #104 ) ;
#36 = DIRECTION ( 'NONE',  ( 0.0000000000000000000, 0.0000000000000000000, 1.000000000000000000 ) ) ;
#37 = AXIS2_PLACEMENT_3D ( 'NONE', #196, #200, #132 ) ;
#38 = EDGE_LOOP ( 'NONE', ( #107 ) ) ;
#39 = ORIENTED_EDGE ( 'NONE', *, *, #219, .T. ) ;
#40 = ADVANCED_BREP_SHAPE_REPRESENTATION ( '55404', ( #84, #83, #85 ), #15 ) ;
#41 = DIRECTION ( 'NONE',  ( 0.0000000000000000000, 1.000000000000000000, 0.0000000000000000000 ) ) ;
#42 = ORIENTED_EDGE ( 'NONE', *, *, #136, .T. ) ;
#43 = EDGE_CURVE ( 'NONE', #166, #166, #34, .T. ) ;
#44 =( NAMED_UNIT ( * ) PLANE_ANGLE_UNIT ( ) SI_UNIT ( $, .RADIAN. ) );
#45 = DIRECTION ( 'NONE',  ( -3.491481338843133355E-15, 1.224646799147353207E-16, -1.000000000000000000 ) ) ;
#46 = DIRECTION ( 'NONE',  ( 0.0000000000000000000, 1.000000000000000000, 0.0000000000000000000 ) ) ;
#47 = CYLINDRICAL_SURFACE ( 'NONE', #143, 0.9999999999999988898 ) ;
#48 = LOCAL_TIME ( 7, 15, 31.00000000000000000, #102 ) ;
#49 = DIRECTION ( 'NONE',  ( 0.0000000000000000000, 1.000000000000000000, 0.0000000000000000000 ) ) ;
#50 = ADVANCED_FACE ( 'NONE', ( #141, #57 ), #124, .T. ) ;
#51 = APPLICATION_PROTOCOL_DEFINITION ( 'international standard', 'config_control_design', 1994, #139 ) ;
#52 = DIRECTION ( 'NONE',  ( 1.000000000000000000, 0.0000000000000000000, 0.0000000000000000000 ) ) ;
#53 = APPROVAL_PERSON_ORGANIZATION ( #100, #184, #170 ) ;
#54 = APPROVAL_STATUS ( 'not_yet_approved' ) ;
#55 = CIRCLE ( 'NONE', #58, 0.8000000000000009326 ) ;
#56 = APPROVAL ( #116, 'UNSPECIFIED' ) ;
#57 = FACE_OUTER_BOUND ( 'NONE', #24, .T. ) ;
#58 = AXIS2_PLACEMENT_3D ( 'NONE', #29, #149, #180 ) ;
#59 = CARTESIAN_POINT ( 'NONE',  ( 1.594399165321153741E-15, -5.592399457076086280E-17, 0.4566540704609469703 ) ) ;
#60 = DIRECTION ( 'NONE',  ( 4.275831445896957731E-31, 1.000000000000000000, 1.224646799147353454E-16 ) ) ;
#61 = CARTESIAN_POINT ( 'NONE',  ( 4.189777606611760026E-14, 0.7599999999999933475, 12.00000000000000000 ) ) ;
#62 = PLANE ( 'NONE',  #110 ) ;
#63 = CARTESIAN_POINT ( 'NONE',  ( 4.189777606611760026E-14, 5.699087174114997192E-33, 12.00000000000000000 ) ) ;
#64 = FACE_OUTER_BOUND ( 'NONE', #127, .T. ) ;
#65 = PERSON_AND_ORGANIZATION_ROLE ( 'classification_officer' ) ;
#66 = PERSON_AND_ORGANIZATION_ROLE ( 'design_owner' ) ;
#67 = CC_DESIGN_PERSON_AND_ORGANIZATION_ASSIGNMENT ( #187, #208, ( #207 ) ) ;
#68 = PERSON_AND_ORGANIZATION ( #156, #96 ) ;
#69 = CLOSED_SHELL ( 'NONE', ( #92, #50, #216 ) ) ;
#70 = CIRCLE ( 'NONE', #213, 1.000000000000000888 ) ;
#71 = DATE_TIME_ROLE ( 'classification_date' ) ;
#72 = ADVANCED_FACE ( 'NONE', ( #202, #64 ), #121, .T. ) ;
#73 = CC_DESIGN_APPROVAL ( #184, ( #204 ) ) ;
#74 = AXIS2_PLACEMENT_3D ( 'NONE', #176, #23, #88 ) ;
#75 = EDGE_CURVE ( 'NONE', #221, #221, #193, .T. ) ;
#76 = DIRECTION ( 'NONE',  ( -4.275831445896958607E-31, -1.000000000000000000, -1.224646799147353207E-16 ) ) ;
#77 = CARTESIAN_POINT ( 'NONE',  ( 0.0000000000000000000, 0.0000000000000000000, 0.0000000000000000000 ) ) ;
#78 = CC_DESIGN_PERSON_AND_ORGANIZATION_ASSIGNMENT ( #33, #66, ( #199 ) ) ;
#79 = DIRECTION ( 'NONE',  ( -4.275831445896958607E-31, -1.000000000000000000, -1.224646799147353207E-16 ) ) ;
#80 = MECHANICAL_CONTEXT ( 'NONE', #139, 'mechanical' ) ;
#81 = CC_DESIGN_APPROVAL ( #56, ( #207 ) ) ;
#82 = COORDINATED_UNIVERSAL_TIME_OFFSET ( 1, 0, .AHEAD. ) ;
#83 = MANIFOLD_SOLID_BREP ( 'Corps-Déplacer/Copier1[2]', #69 ) ;
#84 = MANIFOLD_SOLID_BREP ( 'Corps-Déplacer/Copier1[1]', #101 ) ;
#85 = AXIS2_PLACEMENT_3D ( 'NONE', #98, #36, #52 ) ;
#86 = EDGE_LOOP ( 'NONE', ( #90 ) ) ;
#87 = FACE_BOUND ( 'NONE', #108, .T. ) ;
#88 = DIRECTION ( 'NONE',  ( 0.0000000000000000000, 1.000000000000000000, 0.0000000000000000000 ) ) ;
#89 = ORIENTED_EDGE ( 'NONE', *, *, #2, .T. ) ;
#90 = ORIENTED_EDGE ( 'NONE', *, *, #75, .F. ) ;
#91 = VERTEX_POINT ( 'NONE', #220 ) ;
#92 = ADVANCED_FACE ( 'NONE', ( #94 ), #148, .T. ) ;
#93 = DIRECTION ( 'NONE',  ( -3.491481338843133355E-15, 1.224646799147353207E-16, -1.000000000000000000 ) ) ;
#94 = FACE_OUTER_BOUND ( 'NONE', #194, .T. ) ;
#95 = CARTESIAN_POINT ( 'NONE',  ( 1.594399165321154136E-15, 0.7599999999999935696, 0.4566540704609470813 ) ) ;
#96 = ORGANIZATION ( 'UNSPECIFIED', 'UNSPECIFIED', '' ) ;
#97 = DIRECTION ( 'NONE',  ( 3.491481338843133355E-15, -1.224646799147353207E-16, 1.000000000000000000 ) ) ;
#98 = CARTESIAN_POINT ( 'NONE',  ( 0.0000000000000000000, 0.0000000000000000000, 0.0000000000000000000 ) ) ;
#99 = APPLICATION_CONTEXT ( 'configuration controlled 3d designs of mechanical parts and assemblies' ) ;
#100 = PERSON_AND_ORGANIZATION ( #156, #96 ) ;
#101 = CLOSED_SHELL ( 'NONE', ( #120, #72, #131, #7, #169 ) ) ;
#102 = COORDINATED_UNIVERSAL_TIME_OFFSET ( 1, 0, .AHEAD. ) ;
#103 = CALENDAR_DATE ( 2021, 8, 10 ) ;
#104 = LOCAL_TIME ( 7, 15, 31.00000000000000000, #172 ) ;
#105 = DIRECTION ( 'NONE',  ( -3.491481338843133355E-15, 1.224646799147353207E-16, -1.000000000000000000 ) ) ;
#106 = ORIENTED_EDGE ( 'NONE', *, *, #211, .T. ) ;
#107 = ORIENTED_EDGE ( 'NONE', *, *, #136, .F. ) ;
#108 = EDGE_LOOP ( 'NONE', ( #39 ) ) ;
#109 = DIRECTION ( 'NONE',  ( 5.068236695755926278E-31, 1.000000000000000000, 1.426581805901991468E-16 ) ) ;
#110 = AXIS2_PLACEMENT_3D ( 'NONE', #63, #147, #76 ) ;
#111 = DIRECTION ( 'NONE',  ( 3.491481338843133355E-15, -1.224646799147353207E-16, 1.000000000000000000 ) ) ;
#112 = CARTESIAN_POINT ( 'NONE',  ( 1.319779946082704535E-13, -4.629164900776995227E-15, 37.79999999999999716 ) ) ;
#113 = FACE_OUTER_BOUND ( 'NONE', #122, .T. ) ;
#114 = APPROVAL_PERSON_ORGANIZATION ( #153, #197, #17 ) ;
#115 = DIRECTION ( 'NONE',  ( 4.275831445896958607E-31, 1.000000000000000000, 1.224646799147353207E-16 ) ) ;
#116 = APPROVAL_STATUS ( 'not_yet_approved' ) ;
#117 = PERSON_AND_ORGANIZATION ( #156, #96 ) ;
#118 = AXIS2_PLACEMENT_3D ( 'NONE', #31, #93, #218 ) ;
#119 = DATE_AND_TIME ( #103, #48 ) ;
#120 = ADVANCED_FACE ( 'NONE', ( #113 ), #62, .F. ) ;
#121 = CONICAL_SURFACE ( 'NONE', #30, 0.9999999999999970024, 0.5235987755982932645 ) ;
#122 = EDGE_LOOP ( 'NONE', ( #212 ) ) ;
#123 = EDGE_LOOP ( 'NONE', ( #178 ) ) ;
#124 = CYLINDRICAL_SURFACE ( 'NONE', #11, 0.7599999999999942357 ) ;
#125 = APPROVAL_PERSON_ORGANIZATION ( #223, #56, #210 ) ;
#126 = AXIS2_PLACEMENT_3D ( 'NONE', #59, #105, #109 ) ;
#127 = EDGE_LOOP ( 'NONE', ( #146 ) ) ;
#128 = PRODUCT_DEFINITION ( 'UNKNOWN', '', #207, #203 ) ;
#129 = PLANE ( 'NONE',  #177 ) ;
#130 = CIRCLE ( 'NONE', #126, 0.7599999999999936806 ) ;
#131 = ADVANCED_FACE ( 'NONE', ( #12, #133 ), #47, .T. ) ;
#132 = DIRECTION ( 'NONE',  ( -5.068236695755926278E-31, -1.000000000000000000, -1.426581805901991468E-16 ) ) ;
#133 = FACE_OUTER_BOUND ( 'NONE', #191, .T. ) ;
#134 = VERTEX_POINT ( 'NONE', #150 ) ;
#135 = PERSON_AND_ORGANIZATION_ROLE ( 'creator' ) ;
#136 = EDGE_CURVE ( 'NONE', #179, #179, #70, .T. ) ;
#137 = APPLICATION_PROTOCOL_DEFINITION ( 'international standard', 'config_control_design', 1994, #99 ) ;
#138 = CALENDAR_DATE ( 2021, 8, 10 ) ;
#139 = APPLICATION_CONTEXT ( 'configuration controlled 3d designs of mechanical parts and assemblies' ) ;
#140 = LOCAL_TIME ( 7, 15, 31.00000000000000000, #155 ) ;
#141 = FACE_OUTER_BOUND ( 'NONE', #22, .T. ) ;
#142 = EDGE_LOOP ( 'NONE', ( #192 ) ) ;
#143 = AXIS2_PLACEMENT_3D ( 'NONE', #77, #217, #60 ) ;
#144 = PRODUCT_RELATED_PRODUCT_CATEGORY ( 'detail', '', ( #199 ) ) ;
#145 = CONICAL_SURFACE ( 'NONE', #4, 0.8000000000000009326, 0.7853981633974512766 ) ;
#146 = ORIENTED_EDGE ( 'NONE', *, *, #43, .T. ) ;
#147 = DIRECTION ( 'NONE',  ( 3.491481338843133355E-15, -1.224646799147353207E-16, 1.000000000000000000 ) ) ;
#148 = CONICAL_SURFACE ( 'NONE', #37, 0.7599999999999936806, 1.029744258676649649 ) ;
#149 = DIRECTION ( 'NONE',  ( -3.491481338843133355E-15, 1.224646799147353207E-16, -1.000000000000000000 ) ) ;
#150 = CARTESIAN_POINT ( 'NONE',  ( 4.189777606611760026E-14, 0.7599999999999933475, 12.00000000000000000 ) ) ;
#151 = PLANE ( 'NONE',  #20 ) ;
#152 = APPROVAL_DATE_TIME ( #119, #197 ) ;
#153 = PERSON_AND_ORGANIZATION ( #156, #96 ) ;
#154 = DATE_AND_TIME ( #18, #159 ) ;
#155 = COORDINATED_UNIVERSAL_TIME_OFFSET ( 1, 0, .AHEAD. ) ;
#156 = PERSON ( 'UNSPECIFIED', 'UNSPECIFIED', 'UNSPECIFIED', ('UNSPECIFIED'), ('UNSPECIFIED'), ('UNSPECIFIED') ) ;
#157 = CC_DESIGN_DATE_AND_TIME_ASSIGNMENT ( #209, #3, ( #128 ) ) ;
#158 = CARTESIAN_POINT ( 'NONE',  ( 1.326762908760390423E-13, -4.653657836759941941E-15, 38.00000000000000000 ) ) ;
#159 = LOCAL_TIME ( 7, 15, 31.00000000000000000, #82 ) ;
#160 = ORIENTED_EDGE ( 'NONE', *, *, #2, .F. ) ;
#161 = CARTESIAN_POINT ( 'NONE',  ( 0.0000000000000000000, 0.0000000000000000000, 0.0000000000000000000 ) ) ;
#162 = ORIENTED_EDGE ( 'NONE', *, *, #43, .F. ) ;
#163 = CC_DESIGN_SECURITY_CLASSIFICATION ( #204, ( #207 ) ) ;
#164 = CARTESIAN_POINT ( 'NONE',  ( 4.189777606611760026E-14, 5.699087174114997192E-33, 12.00000000000000000 ) ) ;
#165 =( LENGTH_UNIT ( ) NAMED_UNIT ( * ) SI_UNIT ( .MILLI., .METRE. ) );
#166 = VERTEX_POINT ( 'NONE', #183 ) ;
#167 = CARTESIAN_POINT ( 'NONE',  ( 4.334915760353080865E-14, -1.520483770435620548E-15, 12.41569219381653966 ) ) ;
#168 = CARTESIAN_POINT ( 'NONE',  ( 4.189777606611760026E-14, -1.469576158976823947E-15, 12.00000000000000000 ) ) ;
#169 = ADVANCED_FACE ( 'NONE', ( #8 ), #151, .F. ) ;
#170 = APPROVAL_ROLE ( '' ) ;
#171 = APPROVAL_STATUS ( 'not_yet_approved' ) ;
#172 = COORDINATED_UNIVERSAL_TIME_OFFSET ( 1, 0, .AHEAD. ) ;
#173 = PERSON_AND_ORGANIZATION_ROLE ( 'creator' ) ;
#174 = CC_DESIGN_APPROVAL ( #197, ( #128 ) ) ;
#175 = FACE_OUTER_BOUND ( 'NONE', #38, .T. ) ;
#176 = CARTESIAN_POINT ( 'NONE',  ( 4.334915760353080865E-14, -1.520483770435620548E-15, 12.41569219381653966 ) ) ;
#177 = AXIS2_PLACEMENT_3D ( 'NONE', #164, #111, #79 ) ;
#178 = ORIENTED_EDGE ( 'NONE', *, *, #211, .F. ) ;
#179 = VERTEX_POINT ( 'NONE', #10 ) ;
#180 = DIRECTION ( 'NONE',  ( 0.0000000000000000000, 1.000000000000000000, 0.0000000000000000000 ) ) ;
#181 = CARTESIAN_POINT ( 'NONE',  ( 1.326762908760390423E-13, 5.999039130647367482E-33, 38.00000000000000000 ) ) ;
#182 = DIRECTION ( 'NONE',  ( -3.491481338843133355E-15, 1.224646799147353207E-16, -1.000000000000000000 ) ) ;
#183 = CARTESIAN_POINT ( 'NONE',  ( 4.334915760353080865E-14, 0.9999999999999954481, 12.41569219381653966 ) ) ;
#184 = APPROVAL ( #171, 'UNSPECIFIED' ) ;
#185 = PERSON_AND_ORGANIZATION ( #156, #96 ) ;
#186 = LOCAL_TIME ( 7, 15, 31.00000000000000000, #21 ) ;
#187 = PERSON_AND_ORGANIZATION ( #156, #96 ) ;
#188 = SECURITY_CLASSIFICATION_LEVEL ( 'unclassified' ) ;
#189 =( NAMED_UNIT ( * ) SI_UNIT ( $, .STERADIAN. ) SOLID_ANGLE_UNIT ( ) );
#190 = CC_DESIGN_DATE_AND_TIME_ASSIGNMENT ( #35, #71, ( #204 ) ) ;
#191 = EDGE_LOOP ( 'NONE', ( #42 ) ) ;
#192 = ORIENTED_EDGE ( 'NONE', *, *, #219, .F. ) ;
#193 = CIRCLE ( 'NONE', #214, 0.7599999999999947908 ) ;
#194 = EDGE_LOOP ( 'NONE', ( #89 ) ) ;
#195 = EDGE_LOOP ( 'NONE', ( #162 ) ) ;
#196 = CARTESIAN_POINT ( 'NONE',  ( 1.594399165321153741E-15, -5.592399457076086280E-17, 0.4566540704609469703 ) ) ;
#197 = APPROVAL ( #54, 'UNSPECIFIED' ) ;
#198 = VERTEX_POINT ( 'NONE', #95 ) ;
#199 = PRODUCT ( '55404', '55404', '', ( #80 ) ) ;
#200 = DIRECTION ( 'NONE',  ( 3.491481338843133355E-15, -1.224646799147353207E-16, 1.000000000000000000 ) ) ;
#201 = CC_DESIGN_PERSON_AND_ORGANIZATION_ASSIGNMENT ( #68, #65, ( #204 ) ) ;
#202 = FACE_BOUND ( 'NONE', #86, .T. ) ;
#203 = DESIGN_CONTEXT ( 'detailed design', #99, 'design' ) ;
#204 = SECURITY_CLASSIFICATION ( '', '', #188 ) ;
#205 = CALENDAR_DATE ( 2021, 8, 10 ) ;
#206 = CALENDAR_DATE ( 2021, 8, 10 ) ;
#207 = PRODUCT_DEFINITION_FORMATION_WITH_SPECIFIED_SOURCE ( 'ANY', '', #199, .NOT_KNOWN. ) ;
#208 = PERSON_AND_ORGANIZATION_ROLE ( 'design_supplier' ) ;
#209 = DATE_AND_TIME ( #206, #186 ) ;
#210 = APPROVAL_ROLE ( '' ) ;
#211 = EDGE_CURVE ( 'NONE', #134, #134, #26, .T. ) ;
#212 = ORIENTED_EDGE ( 'NONE', *, *, #75, .T. ) ;
#213 = AXIS2_PLACEMENT_3D ( 'NONE', #112, #9, #46 ) ;
#214 = AXIS2_PLACEMENT_3D ( 'NONE', #168, #28, #49 ) ;
#215 = DIRECTION ( 'NONE',  ( 0.0000000000000000000, -1.000000000000000000, 0.0000000000000000000 ) ) ;
#216 = ADVANCED_FACE ( 'NONE', ( #14 ), #129, .T. ) ;
#217 = DIRECTION ( 'NONE',  ( -3.491481338843133355E-15, 1.224646799147353207E-16, -1.000000000000000000 ) ) ;
#218 = DIRECTION ( 'NONE',  ( 0.0000000000000000000, 1.000000000000000000, 0.0000000000000000000 ) ) ;
#219 = EDGE_CURVE ( 'NONE', #91, #91, #55, .T. ) ;
#220 = CARTESIAN_POINT ( 'NONE',  ( 1.326762908760390423E-13, 0.7999999999999962697, 38.00000000000000000 ) ) ;
#221 = VERTEX_POINT ( 'NONE', #61 ) ;
#222 = APPROVAL_DATE_TIME ( #32, #56 ) ;
#223 = PERSON_AND_ORGANIZATION ( #156, #96 ) ;
ENDSEC;
END-ISO-10303-21;
